  0
SECTION
  2
HEADER
  9
$ACADVER
  1
AC1015
  9
$ACADMAINTVER
 70
     6
  9
$DWGCODEPAGE
  3
ANSI_1254
  9
$INSBASE
 10
0.0
 20
0.0
 30
0.0
  9
$EXTMIN
 10
0.0
 20
0.0
 30
0.0
  9
$EXTMAX
 10
279.4
 20
215.9
 30
0.0
  9
$LIMMIN
 10
0.0
 20
0.0
  9
$LIMMAX
 10
279.4
 20
215.9
  9
$ORTHOMODE
 70
     0
  9
$REGENMODE
 70
     1
  9
$FILLMODE
 70
     1
  9
$QTEXTMODE
 70
     0
  9
$MIRRTEXT
 70
     1
  9
$LTSCALE
 40
1.0
  9
$ATTMODE
 70
     1
  9
$TEXTSIZE
 40
3.5
  9
$TRACEWID
 40
1.0
  9
$TEXTSTYLE
  7
Standard
  9
$CLAYER
  8
0
  9
$CELTYPE
  6
ByLayer
  9
$CECOLOR
 62
   256
  9
$CELTSCALE
 40
1.0
  9
$DISPSILH
 70
     0
  9
$DIMSCALE
 40
1.0
  9
$DIMASZ
 40
3.5
  9
$DIMEXO
 40
1.0
  9
$DIMDLI
 40
3.75
  9
$DIMRND
 40
0.0
  9
$DIMDLE
 40
0.0
  9
$DIMEXE
 40
1.0
  9
$DIMTP
 40
0.0
  9
$DIMTM
 40
0.0
  9
$DIMTXT
 40
3.5
  9
$DIMCEN
 40
2.5
  9
$DIMTSZ
 40
0.0
  9
$DIMTOL
 70
     0
  9
$DIMLIM
 70
     0
  9
$DIMTIH
 70
     1
  9
$DIMTOH
 70
     1
  9
$DIMSE1
 70
     0
  9
$DIMSE2
 70
     0
  9
$DIMTAD
 70
     1
  9
$DIMZIN
 70
     0
  9
$DIMBLK
  1

  9
$DIMASO
 70
     1
  9
$DIMSHO
 70
     1
  9
$DIMPOST
  1

  9
$DIMAPOST
  1

  9
$DIMALT
 70
     0
  9
$DIMALTD
 70
     3
  9
$DIMALTF
 40
0.0393700787
  9
$DIMLFAC
 40
1.0
  9
$DIMTOFL
 70
     1
  9
$DIMTVP
 40
0.0
  9
$DIMTIX
 70
     0
  9
$DIMSOXD
 70
     0
  9
$DIMSAH
 70
     0
  9
$DIMBLK1
  1

  9
$DIMBLK2
  1

  9
$DIMSTYLE
  2
ISO-25
  9
$DIMCLRD
 70
     0
  9
$DIMCLRE
 70
     0
  9
$DIMCLRT
 70
     0
  9
$DIMTFAC
 40
1.0
  9
$DIMGAP
 40
1.524
  9
$DIMJUST
 70
     0
  9
$DIMSD1
 70
     0
  9
$DIMSD2
 70
     0
  9
$DIMTOLJ
 70
     0
  9
$DIMTZIN
 70
     0
  9
$DIMALTZ
 70
     0
  9
$DIMALTTZ
 70
     0
  9
$DIMUPT
 70
     0
  9
$DIMDEC
 70
     2
  9
$DIMTDEC
 70
     2
  9
$DIMALTU
 70
     2
  9
$DIMALTTD
 70
     3
  9
$DIMTXSTY
  7
Standard
  9
$DIMAUNIT
 70
     0
  9
$DIMADEC
 70
     2
  9
$DIMALTRND
 40
0.0
  9
$DIMAZIN
 70
     0
  9
$DIMDSEP
 70
    44
  9
$DIMATFIT
 70
     3
  9
$DIMFRAC
 70
     0
  9
$DIMLDRBLK
  1

  9
$DIMLUNIT
 70
     2
  9
$DIMLWD
 70
    -2
  9
$DIMLWE
 70
    -2
  9
$DIMTMOVE
 70
     0
  9
$LUNITS
 70
     2
  9
$LUPREC
 70
     2
  9
$SKETCHINC
 40
1.0
  9
$FILLETRAD
 40
10.0
  9
$AUNITS
 70
     0
  9
$AUPREC
 70
     2
  9
$MENU
  1
.
  9
$ELEVATION
 40
0.0
  9
$PELEVATION
 40
0.0
  9
$THICKNESS
 40
0.0
  9
$LIMCHECK
 70
     0
  9
$CHAMFERA
 40
0.0
  9
$CHAMFERB
 40
0.0
  9
$CHAMFERC
 40
0.0
  9
$CHAMFERD
 40
0.0
  9
$SKPOLY
 70
     0
  9
$TDCREATE
 40
2459935.710466319
  9
$TDUCREATE
 40
2459935.585466319
  9
$TDUPDATE
 40
2459935.710466493
  9
$TDUUPDATE
 40
2459935.585466493
  9
$TDINDWG
 40
0.0000000116
  9
$TDUSRTIMER
 40
0.0000000116
  9
$USRTIMER
 70
     1
  9
$ANGBASE
 50
0.0
  9
$ANGDIR
 70
     0
  9
$PDMODE
 70
     0
  9
$PDSIZE
 40
-1.0
  9
$PLINEWID
 40
0.0
  9
$SPLFRAME
 70
     0
  9
$SPLINETYPE
 70
     6
  9
$SPLINESEGS
 70
     8
  9
$HANDSEED
  5
127
  9
$SURFTAB1
 70
     6
  9
$SURFTAB2
 70
     6
  9
$SURFTYPE
 70
     6
  9
$SURFU
 70
     6
  9
$SURFV
 70
     6
  9
$UCSBASE
  2

  9
$UCSNAME
  2

  9
$UCSORG
 10
0.0
 20
0.0
 30
0.0
  9
$UCSXDIR
 10
1.0
 20
0.0
 30
0.0
  9
$UCSYDIR
 10
0.0
 20
1.0
 30
0.0
  9
$UCSORTHOREF
  2

  9
$UCSORTHOVIEW
 70
     0
  9
$UCSORGTOP
 10
0.0
 20
0.0
 30
0.0
  9
$UCSORGBOTTOM
 10
0.0
 20
0.0
 30
0.0
  9
$UCSORGLEFT
 10
0.0
 20
0.0
 30
0.0
  9
$UCSORGRIGHT
 10
0.0
 20
0.0
 30
0.0
  9
$UCSORGFRONT
 10
0.0
 20
0.0
 30
0.0
  9
$UCSORGBACK
 10
0.0
 20
0.0
 30
0.0
  9
$PUCSBASE
  2

  9
$PUCSNAME
  2

  9
$PUCSORG
 10
0.0
 20
0.0
 30
0.0
  9
$PUCSXDIR
 10
1.0
 20
0.0
 30
0.0
  9
$PUCSYDIR
 10
0.0
 20
1.0
 30
0.0
  9
$PUCSORTHOREF
  2

  9
$PUCSORTHOVIEW
 70
     0
  9
$PUCSORGTOP
 10
0.0
 20
0.0
 30
0.0
  9
$PUCSORGBOTTOM
 10
0.0
 20
0.0
 30
0.0
  9
$PUCSORGLEFT
 10
0.0
 20
0.0
 30
0.0
  9
$PUCSORGRIGHT
 10
0.0
 20
0.0
 30
0.0
  9
$PUCSORGFRONT
 10
0.0
 20
0.0
 30
0.0
  9
$PUCSORGBACK
 10
0.0
 20
0.0
 30
0.0
  9
$USERI1
 70
     0
  9
$USERI2
 70
     0
  9
$USERI3
 70
     0
  9
$USERI4
 70
     0
  9
$USERI5
 70
     0
  9
$USERR1
 40
0.0
  9
$USERR2
 40
0.0
  9
$USERR3
 40
0.0
  9
$USERR4
 40
0.0
  9
$USERR5
 40
0.0
  9
$WORLDVIEW
 70
     1
  9
$SHADEDGE
 70
     3
  9
$SHADEDIF
 70
    70
  9
$TILEMODE
 70
     1
  9
$MAXACTVP
 70
    64
  9
$PINSBASE
 10
0.0
 20
0.0
 30
0.0
  9
$PLIMCHECK
 70
     0
  9
$PEXTMIN
 10
1.0000000000E+20
 20
1.0000000000E+20
 30
1.0000000000E+20
  9
$PEXTMAX
 10
-1.0000000000E+20
 20
-1.0000000000E+20
 30
-1.0000000000E+20
  9
$PLIMMIN
 10
0.0
 20
0.0
  9
$PLIMMAX
 10
420.0
 20
297.0
  9
$UNITMODE
 70
     0
  9
$VISRETAIN
 70
     1
  9
$PLINEGEN
 70
     0
  9
$PSLTSCALE
 70
     1
  9
$TREEDEPTH
 70
  3020
  9
$CMLSTYLE
  2
Standard
  9
$CMLJUST
 70
     0
  9
$CMLSCALE
 40
20.0
  9
$PROXYGRAPHICS
 70
     1
  9
$MEASUREMENT
 70
     1
  9
$CELWEIGHT
370
    -1
  9
$ENDCAPS
280
     0
  9
$JOINSTYLE
280
     0
  9
$LWDISPLAY
290
     1
  9
$INSUNITS
 70
     4
  9
$HYPERLINKBASE
  1

  9
$STYLESHEET
  1

  9
$XEDIT
290
     1
  9
$CEPSNTYPE
380
     0
  9
$PSTYLEMODE
290
     1
  9
$FINGERPRINTGUID
  2
{9fd29cdb-dbee-41cb-956e-7a215175bf89}
  9
$VERSIONGUID
  2
{FAEB1C32-E019-11D5-929B-00C0DF256EC4}
  9
$EXTNAMES
290
     1
  9
$PSVPSCALE
 40
0.0
  9
$OLESTARTUP
290
     0
  0
ENDSEC
  0
SECTION
  2
CLASSES
  0
CLASS
  1
ACDBDICTIONARYWDFLT
  2
AcDbDictionaryWithDefault
  3
ObjectDBX Classes
 90
        0
280
     0
281
     0
  0
CLASS
  1
VISUALSTYLE
  2
AcDbVisualStyle
  3
ObjectDBX Classes
 90
     4095
280
     0
281
     0
  0
CLASS
  1
MATERIAL
  2
AcDbMaterial
  3
ObjectDBX Classes
 90
     1153
280
     0
281
     0
  0
CLASS
  1
SCALE
  2
AcDbScale
  3
ObjectDBX Classes
 90
     1153
280
     0
281
     0
  0
CLASS
  1
TABLESTYLE
  2
AcDbTableStyle
  3
ObjectDBX Classes
 90
     4095
280
     0
281
     0
  0
CLASS
  1
MLEADERSTYLE
  2
AcDbMLeaderStyle
  3
ACDB_MLEADERSTYLE_CLASS
 90
     4095
280
     0
281
     0
  0
CLASS
  1
SUN
  2
AcDbSun
  3
SCENEOE
 90
     1153
280
     0
281
     0
  0
CLASS
  1
ACDBPLACEHOLDER
  2
AcDbPlaceHolder
  3
ObjectDBX Classes
 90
        0
280
     0
281
     0
  0
CLASS
  1
LAYOUT
  2
AcDbLayout
  3
ObjectDBX Classes
 90
        0
280
     0
281
     0
  0
ENDSEC
  0
SECTION
  2
TABLES
  0
TABLE
  2
VPORT
  5
8
330
0
100
AcDbSymbolTable
 70
     1
  0
VPORT
  5
29
330
8
100
AcDbSymbolTableRecord
100
AcDbViewportTableRecord
  2
*Active
 70
     0
 10
0.0
 20
0.0
 11
1.0
 21
1.0
 12
139.7
 22
107.95
 13
0.0
 23
0.0
 14
10.0
 24
10.0
 15
10.0
 25
10.0
 16
0.0
 26
0.0
 36
1.0
 17
0.0
 27
0.0
 37
0.0
 40
215.9
 41
1.2941176471
 42
50.0
 43
0.0
 44
0.0
 50
0.0
 51
0.0
 71
     0
 72
  2000
 73
     1
 74
     3
 75
     0
 76
     0
 77
     0
 78
     0
281
     0
 65
     1
110
0.0
120
0.0
130
0.0
111
1.0
121
0.0
131
0.0
112
0.0
122
1.0
132
0.0
 79
     0
146
0.0
  0
ENDTAB
  0
TABLE
  2
LTYPE
  5
5
330
0
100
AcDbSymbolTable
 70
     6
  0
LTYPE
  5
14
330
5
100
AcDbSymbolTableRecord
100
AcDbLinetypeTableRecord
  2
ByBlock
 70
     0
  3

 72
    65
 73
     0
 40
0.0
  0
LTYPE
  5
15
330
5
100
AcDbSymbolTableRecord
100
AcDbLinetypeTableRecord
  2
ByLayer
 70
     0
  3

 72
    65
 73
     0
 40
0.0
  0
LTYPE
  5
16
330
5
100
AcDbSymbolTableRecord
100
AcDbLinetypeTableRecord
  2
Continuous
 70
     0
  3
Solid line
 72
    65
 73
     0
 40
0.0
  0
LTYPE
  5
6E
330
5
100
AcDbSymbolTableRecord
100
AcDbLinetypeTableRecord
  2
HIDDEN
 70
     0
  3
Hidden __ __ __ __ __ __ __ __ __ __ __ __ __ __
 72
    65
 73
     2
 40
1.905
 49
1.27
 74
     0
 49
-0.635
 74
     0
  0
LTYPE
  5
6F
330
5
100
AcDbSymbolTableRecord
100
AcDbLinetypeTableRecord
  2
PHANTOM
 70
     0
  3
Phantom ______  __  __  ______  __  __  ______
 72
    65
 73
     6
 40
12.7
 49
6.35
 74
     0
 49
-1.27
 74
     0
 49
1.27
 74
     0
 49
-1.27
 74
     0
 49
1.27
 74
     0
 49
-1.27
 74
     0
  0
LTYPE
  5
70
330
5
100
AcDbSymbolTableRecord
100
AcDbLinetypeTableRecord
  2
CENTER
 70
     0
  3
Center ____ _ ____ _ ____ _ ____ _ ____ _ ____
 72
    65
 73
     4
 40
10.16
 49
6.35
 74
     0
 49
-1.27
 74
     0
 49
1.27
 74
     0
 49
-1.27
 74
     0
  0
LTYPE
  5
71
330
5
100
AcDbSymbolTableRecord
100
AcDbLinetypeTableRecord
  2
CENTERX2
 70
     0
  3
Center (2x) ________  __  ________  __  _____
 72
    65
 73
     4
 40
20.32
 49
12.7
 74
     0
 49
-2.54
 74
     0
 49
2.54
 74
     0
 49
-2.54
 74
     0
  0
LTYPE
  5
72
330
5
100
AcDbSymbolTableRecord
100
AcDbLinetypeTableRecord
  2
DOT2
 70
     0
  3
Dot (.5x) ........................................
 72
    65
 73
     2
 40
0.635
 49
0.0
 74
     0
 49
-0.635
 74
     0
  0
ENDTAB
  0
TABLE
  2
LAYER
  5
2
330
0
100
AcDbSymbolTable
 70
    17
  0
LAYER
  5
10
330
2
100
AcDbSymbolTableRecord
100
AcDbLayerTableRecord
  2
0
 70
     0
 62
     7
  6
Continuous
370
    -3
390
F
  0
LAYER
  5
73
330
2
100
AcDbSymbolTableRecord
100
AcDbLayerTableRecord
  2
FORMAT
 70
     0
 62
     7
  6
Continuous
370
    -3
390
F
  0
LAYER
  5
74
330
2
100
AcDbSymbolTableRecord
100
AcDbLayerTableRecord
  2
YARDIMCI_GEOMETRI
 70
     0
 62
    -6
  6
Continuous
290
     0
370
    -3
390
F
  0
LAYER
  5
75
330
2
100
AcDbSymbolTableRecord
100
AcDbLayerTableRecord
  2
SAYFA_CERCEVESI
 70
     0
 62
     7
  6
Continuous
370
    25
390
F
  0
LAYER
  5
76
330
2
100
AcDbSymbolTableRecord
100
AcDbLayerTableRecord
  2
ANTET
 70
     0
 62
     7
  6
Continuous
370
    -3
390
F
  0
LAYER
  5
77
330
2
100
AcDbSymbolTableRecord
100
AcDbLayerTableRecord
  2
OLCU
 70
     0
 62
   150
  6
Continuous
370
    -3
390
F
  0
LAYER
  5
78
330
2
100
AcDbSymbolTableRecord
100
AcDbLayerTableRecord
  2
METIN
 70
     0
 62
    96
  6
Continuous
370
    -3
390
F
  0
LAYER
  5
79
330
2
100
AcDbSymbolTableRecord
100
AcDbLayerTableRecord
  2
BALON
 70
     0
 62
     5
  6
Continuous
370
    -3
390
F
  0
LAYER
  5
7A
330
2
100
AcDbSymbolTableRecord
100
AcDbLayerTableRecord
  2
VURGU
 70
     0
 62
     7
  6
Continuous
370
    -3
390
F
  0
LAYER
  5
7B
330
2
100
AcDbSymbolTableRecord
100
AcDbLayerTableRecord
  2
SILIK
 70
     0
 62
     7
  6
Continuous
370
    -3
390
F
  0
LAYER
  5
7C
330
2
100
AcDbSymbolTableRecord
100
AcDbLayerTableRecord
  2
MODEL
 70
     0
 62
     7
  6
Continuous
370
    -3
390
F
  0
LAYER
  5
7D
330
2
100
AcDbSymbolTableRecord
100
AcDbLayerTableRecord
  2
DETAYLANDıRMA
 70
     0
 62
   190
  6
Continuous
370
    -3
390
F
  0
LAYER
  5
7E
330
2
100
AcDbSymbolTableRecord
100
AcDbLayerTableRecord
  2
TOLERANS
 70
     0
 62
   230
  6
Continuous
370
    -3
390
F
  0
LAYER
  5
7F
330
2
100
AcDbSymbolTableRecord
100
AcDbLayerTableRecord
  2
MERKEZ_CIZGILERI
 70
     0
 62
    30
  6
Continuous
370
    -3
390
F
  0
LAYER
  5
80
330
2
100
AcDbSymbolTableRecord
100
AcDbLayerTableRecord
  2
KESIT-DETAY_CIZGILERI
 70
     0
 62
     7
  6
Continuous
370
    -3
390
F
  0
LAYER
  5
81
330
2
100
AcDbSymbolTableRecord
100
AcDbLayerTableRecord
  2
\U+041E\U+0421\U+0415\U+0412\U+042B\U+0415
 70
     0
 62
     7
  6
Continuous
370
    -3
390
F
  0
LAYER
  5
82
330
2
100
AcDbSymbolTableRecord
100
AcDbLayerTableRecord
  2
\U+0412\U+041E\U+0414\U+042F\U+041D\U+042B\U+0415_\U+0417\U+041D\U+0410\U+041A\U+0418
 70
     0
 62
    11
  6
Continuous
370
    -3
390
F
  0
ENDTAB
  0
TABLE
  2
STYLE
  5
3
330
0
100
AcDbSymbolTable
 70
     1
  0
STYLE
  5
11
330
3
100
AcDbSymbolTableRecord
100
AcDbTextStyleTableRecord
  2
Standard
 70
     0
 40
0.0
 41
1.0
 50
0.0
 71
     0
 42
3.5
  3
txt
  4

  0
ENDTAB
  0
TABLE
  2
VIEW
  5
6
330
0
100
AcDbSymbolTable
 70
     0
  0
ENDTAB
  0
TABLE
  2
UCS
  5
7
330
0
100
AcDbSymbolTable
 70
     0
  0
ENDTAB
  0
TABLE
  2
APPID
  5
9
330
0
100
AcDbSymbolTable
 70
     1
  0
APPID
  5
12
330
9
100
AcDbSymbolTableRecord
100
AcDbRegAppTableRecord
  2
ACAD
 70
     0
  0
ENDTAB
  0
TABLE
  2
DIMSTYLE
  5
A
330
0
100
AcDbSymbolTable
 70
     1
100
AcDbDimStyleTable
  0
DIMSTYLE
105
27
330
A
100
AcDbSymbolTableRecord
100
AcDbDimStyleTableRecord
  2
ISO-25
 70
     0
 41
2.5
 42
0.625
 43
3.75
 44
1.25
 73
     0
 74
     0
 77
     1
 78
     8
140
2.5
141
2.5
143
0.0393700787
147
0.625
171
     3
172
     1
178
     0
271
     2
272
     2
274
     3
278
    44
283
     0
284
     8
340
11
  0
ENDTAB
  0
TABLE
  2
BLOCK_RECORD
  5
1
330
0
100
AcDbSymbolTable
 70
     4
  0
BLOCK_RECORD
  5
1F
330
1
100
AcDbSymbolTableRecord
100
AcDbBlockTableRecord
  2
*Model_Space
340
22
  0
BLOCK_RECORD
  5
1B
330
1
100
AcDbSymbolTableRecord
100
AcDbBlockTableRecord
  2
*Paper_Space
340
1E
  0
BLOCK_RECORD
  5
23
330
1
100
AcDbSymbolTableRecord
100
AcDbBlockTableRecord
  2
*Paper_Space0
340
26
  0
BLOCK_RECORD
  5
93
330
1
100
AcDbSymbolTableRecord
100
AcDbBlockTableRecord
  2
SW_CENTERMARKSYMBOL_0
340
0
102
{BLKREFS
331
9E
102
}
  0
BLOCK_RECORD
  5
E9
330
1
100
AcDbSymbolTableRecord
100
AcDbBlockTableRecord
  2
SW_CENTERMARKSYMBOL_1
340
0
102
{BLKREFS
331
F4
102
}
  0
BLOCK_RECORD
  5
F5
330
1
100
AcDbSymbolTableRecord
100
AcDbBlockTableRecord
  2
SW_CENTERMARKSYMBOL_2
340
0
102
{BLKREFS
331
100
102
}
  0
ENDTAB
  0
ENDSEC
  0
SECTION
  2
BLOCKS
  0
BLOCK
  5
20
330
1F
100
AcDbEntity
  8
0
100
AcDbBlockBegin
  2
*Model_Space
 70
     0
 10
0.0
 20
0.0
 30
0.0
  3
*Model_Space
  1

  0
ENDBLK
  5
21
330
1F
100
AcDbEntity
  8
0
100
AcDbBlockEnd
  0
BLOCK
  5
1C
330
1B
100
AcDbEntity
 67
     1
  8
0
100
AcDbBlockBegin
  2
*Paper_Space
 70
     0
 10
0.0
 20
0.0
 30
0.0
  3
*Paper_Space
  1

  0
ENDBLK
  5
1D
330
1B
100
AcDbEntity
 67
     1
  8
0
100
AcDbBlockEnd
  0
BLOCK
  5
24
330
23
100
AcDbEntity
  8
0
100
AcDbBlockBegin
  2
*Paper_Space0
 70
     0
 10
0.0
 20
0.0
 30
0.0
  3
*Paper_Space0
  1

  0
ENDBLK
  5
25
330
23
100
AcDbEntity
  8
0
100
AcDbBlockEnd
  0
BLOCK
  5
94
330
93
100
AcDbEntity
  8
0
100
AcDbBlockBegin
  2
SW_CENTERMARKSYMBOL_0
 70
     0
 10
0.0
 20
0.0
 30
0.0
  3
SW_CENTERMARKSYMBOL_0
  1

  0
LINE
  5
96
330
93
100
AcDbEntity
  8
FORMAT
 62
     0
100
AcDbLine
 10
0.0
 20
0.0
 30
0.0
 11
0.0
 21
2.5
 31
0.0
  0
LINE
  5
97
330
93
100
AcDbEntity
  8
FORMAT
 62
     0
100
AcDbLine
 10
0.0
 20
0.0
 30
0.0
 11
-2.5
 21
0.0
 31
0.0
  0
LINE
  5
98
330
93
100
AcDbEntity
  8
FORMAT
 62
     0
100
AcDbLine
 10
0.0
 20
0.0
 30
0.0
 11
0.0
 21
-2.5
 31
0.0
  0
LINE
  5
99
330
93
100
AcDbEntity
  8
FORMAT
 62
     0
100
AcDbLine
 10
0.0
 20
0.0
 30
0.0
 11
2.5
 21
0.0
 31
0.0
  0
LINE
  5
9A
330
93
100
AcDbEntity
  8
FORMAT
 62
     0
100
AcDbLine
 10
0.0
 20
5.0
 30
0.0
 11
0.0
 21
227.5
 31
0.0
  0
LINE
  5
9B
330
93
100
AcDbEntity
  8
FORMAT
 62
     0
100
AcDbLine
 10
-5.0
 20
0.0
 30
0.0
 11
-227.5
 21
0.0
 31
0.0
  0
LINE
  5
9C
330
93
100
AcDbEntity
  8
FORMAT
 62
     0
100
AcDbLine
 10
0.0
 20
-5.0
 30
0.0
 11
0.0
 21
-227.5
 31
0.0
  0
LINE
  5
9D
330
93
100
AcDbEntity
  8
FORMAT
 62
     0
100
AcDbLine
 10
5.0
 20
0.0
 30
0.0
 11
227.5
 21
0.0
 31
0.0
  0
ENDBLK
  5
95
330
93
100
AcDbEntity
  8
0
100
AcDbBlockEnd
  0
BLOCK
  5
EA
330
E9
100
AcDbEntity
  8
0
100
AcDbBlockBegin
  2
SW_CENTERMARKSYMBOL_1
 70
     0
 10
0.0
 20
0.0
 30
0.0
  3
SW_CENTERMARKSYMBOL_1
  1

  0
LINE
  5
EC
330
E9
100
AcDbEntity
  8
FORMAT
 62
     0
100
AcDbLine
 10
0.0
 20
0.0
 30
0.0
 11
0.0
 21
2.5
 31
0.0
  0
LINE
  5
ED
330
E9
100
AcDbEntity
  8
FORMAT
 62
     0
100
AcDbLine
 10
0.0
 20
0.0
 30
0.0
 11
-2.5
 21
0.0
 31
0.0
  0
LINE
  5
EE
330
E9
100
AcDbEntity
  8
FORMAT
 62
     0
100
AcDbLine
 10
0.0
 20
0.0
 30
0.0
 11
0.0
 21
-2.5
 31
0.0
  0
LINE
  5
EF
330
E9
100
AcDbEntity
  8
FORMAT
 62
     0
100
AcDbLine
 10
0.0
 20
0.0
 30
0.0
 11
2.5
 21
0.0
 31
0.0
  0
LINE
  5
F0
330
E9
100
AcDbEntity
  8
FORMAT
 62
     0
100
AcDbLine
 10
0.0
 20
5.0
 30
0.0
 11
0.0
 21
9.5
 31
0.0
  0
LINE
  5
F1
330
E9
100
AcDbEntity
  8
FORMAT
 62
     0
100
AcDbLine
 10
-5.0
 20
0.0
 30
0.0
 11
-9.5
 21
0.0
 31
0.0
  0
LINE
  5
F2
330
E9
100
AcDbEntity
  8
FORMAT
 62
     0
100
AcDbLine
 10
0.0
 20
-5.0
 30
0.0
 11
0.0
 21
-9.5
 31
0.0
  0
LINE
  5
F3
330
E9
100
AcDbEntity
  8
FORMAT
 62
     0
100
AcDbLine
 10
5.0
 20
0.0
 30
0.0
 11
9.5
 21
0.0
 31
0.0
  0
ENDBLK
  5
EB
330
E9
100
AcDbEntity
  8
0
100
AcDbBlockEnd
  0
BLOCK
  5
F6
330
F5
100
AcDbEntity
  8
0
100
AcDbBlockBegin
  2
SW_CENTERMARKSYMBOL_2
 70
     0
 10
0.0
 20
0.0
 30
0.0
  3
SW_CENTERMARKSYMBOL_2
  1

  0
LINE
  5
F8
330
F5
100
AcDbEntity
  8
FORMAT
 62
     0
100
AcDbLine
 10
0.0
 20
0.0
 30
0.0
 11
0.0
 21
2.5
 31
0.0
  0
LINE
  5
F9
330
F5
100
AcDbEntity
  8
FORMAT
 62
     0
100
AcDbLine
 10
0.0
 20
0.0
 30
0.0
 11
-2.5
 21
0.0
 31
0.0
  0
LINE
  5
FA
330
F5
100
AcDbEntity
  8
FORMAT
 62
     0
100
AcDbLine
 10
0.0
 20
0.0
 30
0.0
 11
0.0
 21
-2.5
 31
0.0
  0
LINE
  5
FB
330
F5
100
AcDbEntity
  8
FORMAT
 62
     0
100
AcDbLine
 10
0.0
 20
0.0
 30
0.0
 11
2.5
 21
0.0
 31
0.0
  0
LINE
  5
FC
330
F5
100
AcDbEntity
  8
FORMAT
 62
     0
100
AcDbLine
 10
0.0
 20
5.0
 30
0.0
 11
0.0
 21
9.5
 31
0.0
  0
LINE
  5
FD
330
F5
100
AcDbEntity
  8
FORMAT
 62
     0
100
AcDbLine
 10
-5.0
 20
0.0
 30
0.0
 11
-9.5
 21
0.0
 31
0.0
  0
LINE
  5
FE
330
F5
100
AcDbEntity
  8
FORMAT
 62
     0
100
AcDbLine
 10
0.0
 20
-5.0
 30
0.0
 11
0.0
 21
-9.5
 31
0.0
  0
LINE
  5
FF
330
F5
100
AcDbEntity
  8
FORMAT
 62
     0
100
AcDbLine
 10
5.0
 20
0.0
 30
0.0
 11
9.5
 21
0.0
 31
0.0
  0
ENDBLK
  5
F7
330
F5
100
AcDbEntity
  8
0
100
AcDbBlockEnd
  0
ENDSEC
  0
SECTION
  2
ENTITIES
  0
LINE
  5
83
330
1F
100
AcDbEntity
  8
0
  6
Continuous
 62
     7
370
    25
100
AcDbLine
 10
114.4346986614
 20
381.5227457085
 30
0.0
 11
114.4346986614
 21
388.7800234665
 31
0.0
  0
LINE
  5
84
330
1F
100
AcDbEntity
  8
0
  6
Continuous
 62
     7
370
    25
100
AcDbLine
 10
100.4346986614
 20
388.7800234665
 30
0.0
 11
100.4346986614
 21
379.7732951575
 31
0.0
  0
LINE
  5
85
330
1F
100
AcDbEntity
  8
0
  6
Continuous
 62
     7
370
    25
100
AcDbLine
 10
184.4346986614
 20
379.7695568521
 30
0.0
 11
184.4346986614
 21
388.7800234665
 31
0.0
  0
LINE
  5
86
330
1F
100
AcDbEntity
  8
0
  6
Continuous
 62
     7
370
    25
100
AcDbLine
 10
170.4346986614
 20
388.7800234665
 30
0.0
 11
170.4346986614
 21
381.5260630913
 31
0.0
  0
CIRCLE
  5
87
330
1F
100
AcDbEntity
  8
0
  6
Continuous
 62
     7
370
    25
100
AcDbCircle
 10
142.4346986614
 20
103.7800234665
 30
0.0
 40
279.0
  0
ARC
  5
88
330
1F
100
AcDbEntity
  8
0
  6
Continuous
 62
     7
370
    25
100
AcDbCircle
 10
142.4346986614
 20
103.7800234665
 30
0.0
 40
279.9999999999994
100
AcDbArc
 50
98.6269265587
 51
180.0
  0
ARC
  5
89
330
1F
100
AcDbEntity
  8
0
  6
Continuous
 62
     7
370
    25
100
AcDbCircle
 10
142.4346986614
 20
103.7800234665
 30
0.0
 40
279.9999999999994
100
AcDbArc
 50
84.2608295227
 51
95.7391704773
  0
ARC
  5
8A
330
1F
100
AcDbEntity
  8
0
  6
Continuous
 62
     7
370
    25
100
AcDbCircle
 10
142.4346986614
 20
103.7800234665
 30
0.0
 40
279.9999999999994
100
AcDbArc
 50
180.0
 51
81.3730734413
  0
SPLINE
  5
8B
330
1F
100
AcDbEntity
  8
0
  6
Continuous
 62
     7
370
    25
100
AcDbSpline
210
0.0
220
0.0
230
1.0
 70
     8
 71
     3
 72
    15
 73
    11
 74
     0
 42
0.00000001
 43
0.00000001
 40
0.0
 40
0.0
 40
0.0
 40
0.0
 40
0.1327476981826633
 40
0.2654715987693868
 40
0.3987840318598488
 40
0.5327510904718235
 40
0.6668409070252814
 40
0.8002594405475758
 40
0.9324003043522292
 40
1.0
 40
1.0
 40
1.0
 40
1.0
 10
113.2192255661375
 20
381.3530269613422
 30
0.0
 10
112.7105199616623
 20
381.2909864341211
 30
0.0
 10
111.6931999480442
 20
381.1669165016451
 30
0.0
 10
109.5134882106001
 20
380.9037121130948
 30
0.0
 10
107.1423548149764
 20
380.6078465554966
 30
0.0
 10
104.7868917426831
 20
380.3036458894765
 30
0.0
 10
102.7218055230255
 20
380.0300430312832
 30
0.0
 10
101.2374893899068
 20
379.8358731637136
 30
0.0
 10
100.4629477412809
 20
379.7427248387646
 30
0.0
 10
100.5147682447061
 20
379.7655651422658
 30
0.0
 10
100.5323062463491
 20
379.7732951574886
 30
0.0
  0
SPLINE
  5
8C
330
1F
100
AcDbEntity
  8
0
  6
Continuous
 62
     7
370
    25
100
AcDbSpline
210
0.0
220
0.0
230
1.0
 70
     8
 71
     3
 72
    10
 73
     6
 74
     0
 42
0.00000001
 43
0.00000001
 40
0.0
 40
0.0
 40
0.0
 40
0.0
 40
0.0926194534479827
 40
0.6528356473384691
 40
1.0
 40
1.0
 40
1.0
 40
1.0
 10
114.3805198228214
 20
381.5227457085229
 30
0.0
 10
114.3976431655331
 20
381.5228870910264
 30
0.0
 10
114.5183384202304
 20
381.5238836369432
 30
0.0
 10
114.0884344002931
 20
381.4630080153584
 30
0.0
 10
113.4597576685967
 20
381.3834615049337
 30
0.0
 10
113.2192255661375
 20
381.3530269613422
 30
0.0
  0
SPLINE
  5
8D
330
1F
100
AcDbEntity
  8
0
  6
Continuous
 62
     7
370
    25
100
AcDbSpline
210
0.0
220
0.0
230
1.0
 70
     8
 71
     3
 72
    14
 73
    10
 74
     0
 42
0.00000001
 43
0.00000001
 40
0.0
 40
0.0
 40
0.0
 40
0.0
 40
0.1442567790960544
 40
0.2884829346492651
 40
0.4333591852023898
 40
0.5782967867453006
 40
0.7226223642842693
 40
0.8660792261839221
 40
1.0
 40
1.0
 40
1.0
 40
1.0
 10
182.3638563381193
 20
380.0020239156706
 30
0.0
 10
181.7468407716198
 20
380.0836150603761
 30
0.0
 10
180.5129406217383
 20
380.2467800292152
 30
0.0
 10
178.1646429806663
 20
380.552217388197
 30
0.0
 10
175.7704398943611
 20
380.8526574575919
 30
0.0
 10
173.5462269779375
 20
381.1228570382391
 30
0.0
 10
171.789522865924
 20
381.3344498924245
 30
0.0
 10
170.6377627479065
 20
381.4794845326364
 30
0.0
 10
170.5161491077039
 20
381.5108968847888
 30
0.0
 10
170.4574327920915
 20
381.5260630913101
 30
0.0
  0
SPLINE
  5
8E
330
1F
100
AcDbEntity
  8
0
  6
Continuous
 62
     7
370
    25
100
AcDbSpline
210
0.0
220
0.0
230
1.0
 70
     8
 71
     3
 72
    10
 73
     6
 74
     0
 42
0.00000001
 43
0.00000001
 40
0.0
 40
0.0
 40
0.0
 40
0.0
 40
0.3192339756272333
 40
0.7407012085596133
 40
1.0
 40
1.0
 40
1.0
 40
1.0
 10
184.3621982133607
 20
379.7695568520824
 30
0.0
 10
184.3473223642019
 20
379.7643722030967
 30
0.0
 10
184.3128067415193
 20
379.7523425444046
 30
0.0
 10
183.5055326141394
 20
379.8524511957749
 30
0.0
 10
182.6787657716057
 20
379.9607671588502
 30
0.0
 10
182.3638563381193
 20
380.0020239156706
 30
0.0
  0
CIRCLE
  5
8F
330
1F
100
AcDbEntity
  8
0
  6
Continuous
 62
     7
370
    25
100
AcDbCircle
 10
142.4346986614
 20
103.7800234665
 30
0.0
 40
225.0
  0
LINE
  5
90
330
1F
100
AcDbEntity
  8
0
  6
Continuous
 62
     7
370
    25
100
AcDbLine
 10
107.4346986614
 20
388.7800234665
 30
0.0
 11
100.4346986614
 21
388.7800234665
 31
0.0
  0
LINE
  5
91
330
1F
100
AcDbEntity
  8
0
  6
Continuous
 62
     7
370
    25
100
AcDbLine
 10
114.4346986614
 20
388.7800234665
 30
0.0
 11
107.4346986614
 21
388.7800234665
 31
0.0
  0
LINE
  5
92
330
1F
100
AcDbEntity
  8
0
  6
Continuous
 62
     7
370
    25
100
AcDbLine
 10
184.4346986614
 20
388.7800234665
 30
0.0
 11
170.4346986614
 21
388.7800234665
 31
0.0
  0
INSERT
  5
9E
330
1F
100
AcDbEntity
  8
FORMAT
 62
     7
100
AcDbBlockReference
  2
SW_CENTERMARKSYMBOL_0
 10
142.4346986614
 20
103.7800234665
 30
0.0
  0
ARC
  5
9F
330
1F
100
AcDbEntity
  8
0
  6
Continuous
 62
     7
370
    25
100
AcDbCircle
 10
765.0378392003
 20
-10494.8449765336
 30
0.0
 40
10878.62500000011
100
AcDbArc
 50
90.0
 51
90.6768023431
  0
LINE
  5
A0
330
1F
100
AcDbEntity
  8
0
  6
Continuous
 62
     7
370
    25
100
AcDbLine
 10
622.5378392003
 20
382.8466738409
 30
0.0
 11
617.5378392003
 21
382.7800234665
 31
0.0
  0
ARC
  5
A1
330
1F
100
AcDbEntity
  8
0
  6
Continuous
 62
     7
370
    25
100
AcDbCircle
 10
765.0378392003
 20
10702.4050234667
 30
0.0
 40
10878.62500000011
100
AcDbArc
 50
269.223119977
 51
270.0
  0
LINE
  5
A2
330
1F
100
AcDbEntity
  8
0
  6
Continuous
 62
     7
370
    25
100
AcDbLine
 10
765.0378392003
 20
-176.2199765335
 30
0.0
 11
790.0378392003
 21
-176.2199765335
 31
0.0
  0
LINE
  5
A3
330
1F
100
AcDbEntity
  8
0
  6
Continuous
 62
     7
370
    25
100
AcDbLine
 10
790.0378392003
 20
383.7800234665
 30
0.0
 11
765.0378392003
 21
383.7800234665
 31
0.0
  0
LINE
  5
A4
330
1F
100
AcDbEntity
  8
0
  6
Continuous
 62
     7
370
    25
100
AcDbLine
 10
937.5378392003
 20
382.7800234665
 30
0.0
 11
932.5378392003
 21
382.8466738409
 31
0.0
  0
ARC
  5
A5
330
1F
100
AcDbEntity
  8
0
  6
Continuous
 62
     7
370
    25
100
AcDbCircle
 10
790.0378392003
 20
-10494.8449765336
 30
0.0
 40
10878.62500000011
100
AcDbArc
 50
89.3231976569
 51
90.0
  0
ARC
  5
A6
330
1F
100
AcDbEntity
  8
0
  6
Continuous
 62
     7
370
    25
100
AcDbCircle
 10
790.0378392003
 20
10702.4050234667
 30
0.0
 40
10878.62500000011
100
AcDbArc
 50
270.0
 51
270.776880023
  0
LINE
  5
A7
330
1F
100
AcDbEntity
  8
0
  6
Continuous
 62
     7
370
    25
100
AcDbLine
 10
636.5378392003
 20
380.8169579594
 30
0.0
 11
636.5378392003
 21
388.7800234665
 31
0.0
  0
LINE
  5
A8
330
1F
100
AcDbEntity
  8
0
  6
Continuous
 62
     7
370
    25
100
AcDbLine
 10
622.5378392003
 20
388.7800234665
 30
0.0
 11
622.5378392003
 21
380.641514299
 31
0.0
  0
LINE
  5
A9
330
1F
100
AcDbEntity
  8
0
  6
Continuous
 62
     7
370
    25
100
AcDbLine
 10
932.5378392003
 20
380.6419743209
 30
0.0
 11
932.5378392003
 21
388.7800234665
 31
0.0
  0
LINE
  5
AA
330
1F
100
AcDbEntity
  8
0
  6
Continuous
 62
     7
370
    25
100
AcDbLine
 10
918.5378392003
 20
388.7800234665
 30
0.0
 11
918.5378392003
 21
380.8157542385
 31
0.0
  0
LINE
  5
AB
330
1F
100
AcDbEntity
  8
0
  6
Continuous
 62
     7
370
    25
100
AcDbLine
 10
617.5378392003
 20
103.7800234665
 30
0.0
 11
617.5378392003
 21
382.7800234665
 31
0.0
  0
LINE
  5
AC
330
1F
100
AcDbEntity
  8
0
  6
Continuous
 62
     7
370
    25
100
AcDbLine
 10
617.5378392003
 20
-175.2199765335
 30
0.0
 11
617.5378392003
 21
103.7800234665
 31
0.0
  0
SPLINE
  5
AD
330
1F
100
AcDbEntity
  8
0
  6
Continuous
 62
     7
370
    25
100
AcDbSpline
210
0.0
220
0.0
230
1.0
 70
     8
 71
     3
 72
    18
 73
    14
 74
     0
 42
0.00000001
 43
0.00000001
 40
0.0
 40
0.0
 40
0.0
 40
0.0
 40
0.0111506697609272
 40
0.1194193225677064
 40
0.228132392331989
 40
0.3366210217676016
 40
0.4441877054720478
 40
0.5506109179283536
 40
0.6563664338009989
 40
0.7623259258306935
 40
0.8691922862874203
 40
0.9771036409598073
 40
1.0
 40
1.0
 40
1.0
 40
1.0
 10
636.5011667760451
 20
380.8169579593949
 30
0.0
 10
636.513099475929
 20
380.8072446693105
 30
0.0
 10
636.6408940359953
 20
380.7032191222673
 30
0.0
 10
636.1279199610901
 20
380.4731980025895
 30
0.0
 10
634.9449766501094
 20
380.1718237552765
 30
0.0
 10
633.0606962349526
 20
379.9230985968801
 30
0.0
 10
630.8038531021494
 20
379.771328484057
 30
0.0
 10
628.4130389012644
 20
379.7378604379304
 30
0.0
 10
626.1676522223797
 20
379.8244491213518
 30
0.0
 10
624.2796024999458
 20
380.0148614459102
 30
0.0
 10
623.0345244346354
 20
380.2781275256349
 30
0.0
 10
622.4659788823488
 20
380.5025527653742
 30
0.0
 10
622.5841479809437
 20
380.6208140461729
 30
0.0
 10
622.6048320983563
 20
380.6415142990009
 30
0.0
  0
LINE
  5
AE
330
1F
100
AcDbEntity
  8
0
  6
Continuous
 62
     7
370
    25
100
AcDbLine
 10
937.5378392003
 20
103.7800234665
 30
0.0
 11
937.5378392003
 21
382.7800234665
 31
0.0
  0
LINE
  5
AF
330
1F
100
AcDbEntity
  8
0
  6
Continuous
 62
     7
370
    25
100
AcDbLine
 10
937.5378392003
 20
-175.2199765335
 30
0.0
 11
937.5378392003
 21
103.7800234665
 31
0.0
  0
SPLINE
  5
B0
330
1F
100
AcDbEntity
  8
0
  6
Continuous
 62
     7
370
    25
100
AcDbSpline
210
0.0
220
0.0
230
1.0
 70
     8
 71
     3
 72
    18
 73
    14
 74
     0
 42
0.00000001
 43
0.00000001
 40
0.0
 40
0.0
 40
0.0
 40
0.0
 40
0.0128988247377868
 40
0.1213759686055451
 40
0.2299525132589678
 40
0.3379854999161042
 40
0.4449839190966384
 40
0.5510139948469595
 40
0.6567501817841561
 40
0.7630673004344772
 40
0.8704879222345172
 40
0.9788824881352817
 40
1.0
 40
1.0
 40
1.0
 40
1.0
 10
932.496020564382
 20
380.6419743208875
 30
0.0
 10
932.5095500772919
 20
380.6303796315057
 30
0.0
 10
932.6368607251678
 20
380.5212753772023
 30
0.0
 10
932.1139756948658
 20
380.3023323890682
 30
0.0
 10
930.9157139118744
 20
380.03135488658
 30
0.0
 10
929.0258348003495
 20
379.8319720434488
 30
0.0
 10
926.7720038975128
 20
379.7391158943392
 30
0.0
 10
924.3887676327819
 20
379.7672233554933
 30
0.0
 10
922.1491210194752
 20
379.9110934333978
 30
0.0
 10
920.2630333943621
 20
380.1498674210266
 30
0.0
 10
919.0235166692615
 20
380.4454384547886
 30
0.0
 10
918.4603795121693
 20
380.6832860548118
 30
0.0
 10
918.5813495247692
 20
380.7971828645233
 30
0.0
 10
918.6010742154732
 20
380.815754238498
 30
0.0
  0
LINE
  5
B1
330
1F
100
AcDbEntity
  8
0
  6
Continuous
 62
     7
370
    25
100
AcDbLine
 10
636.5378392003
 20
388.7800234665
 30
0.0
 11
622.5378392003
 21
388.7800234665
 31
0.0
  0
LINE
  5
B2
330
1F
100
AcDbEntity
  8
0
  6
Continuous
 62
     7
370
    25
100
AcDbLine
 10
932.5378392003
 20
388.7800234665
 30
0.0
 11
918.5378392003
 21
388.7800234665
 31
0.0
  0
LINE
  5
B3
330
1F
100
AcDbEntity
  8
0
  6
Continuous
 62
     1
370
    25
100
AcDbLine
 10
765.0378392003
 20
103.7800234665
 30
0.0
 11
765.0378392003
 21
383.7800234665
 31
0.0
  0
LINE
  5
B4
330
1F
100
AcDbEntity
  8
0
  6
Continuous
 62
     1
370
    25
100
AcDbLine
 10
765.0378392003
 20
-176.2199765335
 30
0.0
 11
765.0378392003
 21
103.7800234665
 31
0.0
  0
LINE
  5
B5
330
1F
100
AcDbEntity
  8
0
  6
Continuous
 62
     1
370
    25
100
AcDbLine
 10
790.0378392003
 20
103.7800234665
 30
0.0
 11
790.0378392003
 21
383.7800234665
 31
0.0
  0
LINE
  5
B6
330
1F
100
AcDbEntity
  8
0
  6
Continuous
 62
     1
370
    25
100
AcDbLine
 10
790.0378392003
 20
-176.2199765335
 30
0.0
 11
790.0378392003
 21
103.7800234665
 31
0.0
  0
ARC
  5
B7
330
1F
100
AcDbEntity
  8
0
  6
Continuous
 62
     7
370
    25
100
AcDbCircle
 10
10741.0596986615
 20
641.6397132244
 30
0.0
 40
10878.62500000011
100
AcDbArc
 50
180.0
 51
180.776880023
  0
ARC
  5
B8
330
1F
100
AcDbEntity
  8
0
  6
Continuous
 62
     7
370
    25
100
AcDbCircle
 10
-10456.1903013388
 20
641.6397132244
 30
0.0
 40
10878.62500000011
100
AcDbArc
 50
359.223119977
 51
0.0
  0
LINE
  5
B9
330
1F
100
AcDbEntity
  8
0
  6
Continuous
 62
     7
370
    25
100
AcDbLine
 10
422.4346986614
 20
641.6397132244
 30
0.0
 11
422.4346986614
 21
666.6397132244
 31
0.0
  0
LINE
  5
BA
330
1F
100
AcDbEntity
  8
0
  6
Continuous
 62
     7
370
    25
100
AcDbLine
 10
-137.5653013386
 20
666.6397132244
 30
0.0
 11
-137.5653013386
 21
641.6397132244
 31
0.0
  0
ARC
  5
BB
330
1F
100
AcDbEntity
  8
0
  6
Continuous
 62
     7
370
    25
100
AcDbCircle
 10
10741.0596986615
 20
666.6397132244
 30
0.0
 40
10878.62500000011
100
AcDbArc
 50
179.223119977
 51
180.0
  0
ARC
  5
BC
330
1F
100
AcDbEntity
  8
0
  6
Continuous
 62
     7
370
    25
100
AcDbCircle
 10
-10456.1903013388
 20
666.6397132244
 30
0.0
 40
10878.62500000011
100
AcDbArc
 50
0.0
 51
0.776880023
  0
LINE
  5
BD
330
1F
100
AcDbEntity
  8
0
  6
Continuous
 62
     7
370
    25
100
AcDbLine
 10
421.4346986614
 20
494.1397132244
 30
0.0
 11
-136.5653013386
 21
494.1397132244
 31
0.0
  0
LINE
  5
BE
330
1F
100
AcDbEntity
  8
0
  6
Continuous
 62
     7
370
    25
100
AcDbLine
 10
421.4346986614
 20
814.1397132244
 30
0.0
 11
-136.5653013386
 21
814.1397132244
 31
0.0
  0
LINE
  5
BF
330
1F
100
AcDbEntity
  8
0
  6
Continuous
 62
     1
370
    25
100
AcDbLine
 10
422.4346986614
 20
641.6397132244
 30
0.0
 11
-137.5653013386
 21
641.6397132244
 31
0.0
  0
LINE
  5
C0
330
1F
100
AcDbEntity
  8
0
  6
Continuous
 62
     1
370
    25
100
AcDbLine
 10
422.4346986614
 20
666.6397132244
 30
0.0
 11
-137.5653013386
 21
666.6397132244
 31
0.0
  0
ARC
  5
C1
330
1F
100
AcDbEntity
  8
0
  6
Continuous
 62
     7
370
    25
100
AcDbCircle
 10
-653.4380086992
 20
10702.4050234667
 30
0.0
 40
10878.62500000011
100
AcDbArc
 50
270.0
 51
270.776880023
  0
LINE
  5
C2
330
1F
100
AcDbEntity
  8
0
  6
Continuous
 62
     7
370
    25
100
AcDbLine
 10
-505.9380086992
 20
382.7800234665
 30
0.0
 11
-510.9380086992
 21
382.8466738409
 31
0.0
  0
ARC
  5
C3
330
1F
100
AcDbEntity
  8
0
  6
Continuous
 62
     7
370
    25
100
AcDbCircle
 10
-653.4380086992
 20
-10494.8449765336
 30
0.0
 40
10878.62500000011
100
AcDbArc
 50
89.3231976569
 51
90.0
  0
LINE
  5
C4
330
1F
100
AcDbEntity
  8
0
  6
Continuous
 62
     7
370
    25
100
AcDbLine
 10
-653.4380086992
 20
383.7800234665
 30
0.0
 11
-678.4380086992
 21
383.7800234665
 31
0.0
  0
LINE
  5
C5
330
1F
100
AcDbEntity
  8
0
  6
Continuous
 62
     7
370
    25
100
AcDbLine
 10
-678.4380086992
 20
-176.2199765335
 30
0.0
 11
-653.4380086992
 21
-176.2199765335
 31
0.0
  0
ARC
  5
C6
330
1F
100
AcDbEntity
  8
0
  6
Continuous
 62
     7
370
    25
100
AcDbCircle
 10
-678.4380086992
 20
10702.4050234667
 30
0.0
 40
10878.62500000011
100
AcDbArc
 50
269.223119977
 51
270.0
  0
ARC
  5
C7
330
1F
100
AcDbEntity
  8
0
  6
Continuous
 62
     7
370
    25
100
AcDbCircle
 10
-678.4380086992
 20
-10494.8449765336
 30
0.0
 40
10878.62500000011
100
AcDbArc
 50
90.0
 51
90.6768023431
  0
LINE
  5
C8
330
1F
100
AcDbEntity
  8
0
  6
Continuous
 62
     7
370
    25
100
AcDbLine
 10
-820.9380086992
 20
382.8466738409
 30
0.0
 11
-825.9380086992
 21
382.7800234665
 31
0.0
  0
LINE
  5
C9
330
1F
100
AcDbEntity
  8
0
  6
Continuous
 62
     7
370
    25
100
AcDbLine
 10
-510.9380086992
 20
380.6415351372
 30
0.0
 11
-510.9380086992
 21
388.7800234665
 31
0.0
  0
LINE
  5
CA
330
1F
100
AcDbEntity
  8
0
  6
Continuous
 62
     7
370
    25
100
AcDbLine
 10
-524.9380086992
 20
388.7800234665
 30
0.0
 11
-524.9380086992
 21
380.8150322367
 31
0.0
  0
LINE
  5
CB
330
1F
100
AcDbEntity
  8
0
  6
Continuous
 62
     7
370
    25
100
AcDbLine
 10
-806.9380086992
 20
380.8149632767
 30
0.0
 11
-806.9380086992
 21
388.7800234665
 31
0.0
  0
LINE
  5
CC
330
1F
100
AcDbEntity
  8
0
  6
Continuous
 62
     7
370
    25
100
AcDbLine
 10
-820.9380086992
 20
388.7800234665
 30
0.0
 11
-820.9380086992
 21
380.6414022936
 31
0.0
  0
LINE
  5
CD
330
1F
100
AcDbEntity
  8
0
  6
Continuous
 62
     7
370
    25
100
AcDbLine
 10
-505.9380086992
 20
382.7800234665
 30
0.0
 11
-505.9380086992
 21
-175.2199765335
 31
0.0
  0
SPLINE
  5
CE
330
1F
100
AcDbEntity
  8
0
  6
Continuous
 62
     7
370
    25
100
AcDbSpline
210
0.0
220
0.0
230
1.0
 70
     8
 71
     3
 72
    10
 73
     6
 74
     0
 42
0.00000001
 43
0.00000001
 40
0.0
 40
0.0
 40
0.0
 40
0.0
 40
0.4342798101106415
 40
0.8684968699738483
 40
1.0
 40
1.0
 40
1.0
 40
1.0
 10
-522.9033319487745
 20
380.1263579412671
 30
0.0
 10
-523.3953885314093
 20
380.2201861909027
 30
0.0
 10
-524.3794305981113
 20
380.4078291326798
 30
0.0
 10
-524.9800017437274
 20
380.6601756347045
 30
0.0
 10
-524.876732803206
 20
380.7858247686347
 30
0.0
 10
-524.8527276692975
 20
380.8150322367297
 30
0.0
  0
SPLINE
  5
CF
330
1F
100
AcDbEntity
  8
0
  6
Continuous
 62
     7
370
    25
100
AcDbSpline
210
0.0
220
0.0
230
1.0
 70
     8
 71
     3
 72
    15
 73
    11
 74
     0
 42
0.00000001
 43
0.00000001
 40
0.0
 40
0.0
 40
0.0
 40
0.0
 40
0.0556739764606485
 40
0.2003291666591206
 40
0.3449018837796504
 40
0.4885305214613541
 40
0.630716731680125
 40
0.7717861810371802
 40
0.9127802047329067
 40
0.9999999999999999
 40
0.9999999999999999
 40
0.9999999999999999
 40
0.9999999999999999
 10
-511.0328494908937
 20
380.64153513719
 30
0.0
 10
-511.0086998906971
 20
380.6033564762379
 30
0.0
 10
-510.9218034699617
 20
380.4659799168663
 30
0.0
 10
-511.6100250564804
 20
380.2255428116999
 30
0.0
 10
-513.0125117886663
 20
379.9693944632094
 30
0.0
 10
-515.0228128198232
 20
379.7959448442
 30
0.0
 10
-517.3392520375046
 20
379.7345024119356
 30
0.0
 10
-519.7020072830237
 20
379.7953622721982
 30
0.0
 10
-521.6110970349511
 20
379.9429463635342
 30
0.0
 10
-522.546019159217
 20
380.0756432439812
 30
0.0
 10
-522.9033319487745
 20
380.1263579412671
 30
0.0
  0
LINE
  5
D0
330
1F
100
AcDbEntity
  8
0
  6
Continuous
 62
     7
370
    25
100
AcDbLine
 10
-825.9380086992
 20
382.7800234665
 30
0.0
 11
-825.9380086992
 21
-175.2199765335
 31
0.0
  0
SPLINE
  5
D1
330
1F
100
AcDbEntity
  8
0
  6
Continuous
 62
     7
370
    25
100
AcDbSpline
210
0.0
220
0.0
230
1.0
 70
     8
 71
     3
 72
    10
 73
     6
 74
     0
 42
0.00000001
 43
0.00000001
 40
0.0
 40
0.0
 40
0.0
 40
0.0
 40
0.4335978632778874
 40
0.8671036802559469
 40
1.0
 40
1.0
 40
1.0
 40
1.0
 10
-818.9082606643627
 20
380.0020239156726
 30
0.0
 10
-819.3988710036971
 20
380.0833927974233
 30
0.0
 10
-820.3799875331755
 20
380.246113287536
 30
0.0
 10
-820.9786978722833
 20
380.4831653864666
 30
0.0
 10
-820.8765801238516
 20
380.611330580462
 30
0.0
 10
-820.8526199865794
 20
380.6414022936443
 30
0.0
  0
SPLINE
  5
D2
330
1F
100
AcDbEntity
  8
0
  6
Continuous
 62
     7
370
    25
100
AcDbSpline
210
0.0
220
0.0
230
1.0
 70
     8
 71
     3
 72
    15
 73
    11
 74
     0
 42
0.00000001
 43
0.00000001
 40
0.0
 40
0.0
 40
0.0
 40
0.0
 40
0.0551267600184117
 40
0.1995187222557748
 40
0.3442913382493387
 40
0.4884797284106626
 40
0.6312692062773215
 40
0.772624951699639
 40
0.9133945098357314
 40
1.0
 40
1.0
 40
1.0
 40
1.0
 10
-807.0320152883071
 20
380.8149632766712
 30
0.0
 10
-807.0080106385873
 20
380.7777514295826
 30
0.0
 10
-806.9211312892712
 20
380.6430716446393
 30
0.0
 10
-807.6056782401874
 20
380.3860556107781
 30
0.0
 10
-809.0048400500627
 20
380.0944850927214
 30
0.0
 10
-811.0178589081692
 20
379.8696522392533
 30
0.0
 10
-813.3418639624858
 20
379.7493787172914
 30
0.0
 10
-815.7110222620183
 20
379.7510629180191
 30
0.0
 10
-817.6201517489122
 20
379.8511607154999
 30
0.0
 10
-818.5529606048334
 20
379.9604112046981
 30
0.0
 10
-818.9082606643627
 20
380.0020239156725
 30
0.0
  0
LINE
  5
D3
330
1F
100
AcDbEntity
  8
0
  6
Continuous
 62
     7
370
    25
100
AcDbLine
 10
-510.9380086992
 20
388.7800234665
 30
0.0
 11
-524.9380086992
 21
388.7800234665
 31
0.0
  0
LINE
  5
D4
330
1F
100
AcDbEntity
  8
0
  6
Continuous
 62
     7
370
    25
100
AcDbLine
 10
-806.9380086992
 20
388.7800234665
 30
0.0
 11
-820.9380086992
 21
388.7800234665
 31
0.0
  0
LINE
  5
D5
330
1F
100
AcDbEntity
  8
0
  6
Continuous
 62
     1
370
    25
100
AcDbLine
 10
-653.4380086992
 20
383.7800234665
 30
0.0
 11
-653.4380086992
 21
-176.2199765335
 31
0.0
  0
LINE
  5
D6
330
1F
100
AcDbEntity
  8
0
  6
Continuous
 62
     1
370
    25
100
AcDbLine
 10
-678.4380086992
 20
383.7800234665
 30
0.0
 11
-678.4380086992
 21
-176.2199765335
 31
0.0
  0
ARC
  5
D7
330
1F
100
AcDbEntity
  8
0
  6
Continuous
 62
     7
370
    25
100
AcDbCircle
 10
-10456.1903013388
 20
-652.6074947156
 30
0.0
 40
10878.62500000011
100
AcDbArc
 50
0.0
 51
0.776880023
  0
ARC
  5
D8
330
1F
100
AcDbEntity
  8
0
  6
Continuous
 62
     7
370
    25
100
AcDbCircle
 10
10741.0596986615
 20
-652.6074947156
 30
0.0
 40
10878.62500000011
100
AcDbArc
 50
179.223119977
 51
180.0
  0
LINE
  5
D9
330
1F
100
AcDbEntity
  8
0
  6
Continuous
 62
     7
370
    25
100
AcDbLine
 10
-137.5653013386
 20
-652.6074947156
 30
0.0
 11
-137.5653013386
 21
-677.6074947156
 31
0.0
  0
LINE
  5
DA
330
1F
100
AcDbEntity
  8
0
  6
Continuous
 62
     7
370
    25
100
AcDbLine
 10
422.4346986614
 20
-677.6074947156
 30
0.0
 11
422.4346986614
 21
-652.6074947156
 31
0.0
  0
ARC
  5
DB
330
1F
100
AcDbEntity
  8
0
  6
Continuous
 62
     7
370
    25
100
AcDbCircle
 10
-10456.1903013388
 20
-677.6074947156
 30
0.0
 40
10878.62500000011
100
AcDbArc
 50
359.223119977
 51
0.0
  0
ARC
  5
DC
330
1F
100
AcDbEntity
  8
0
  6
Continuous
 62
     7
370
    25
100
AcDbCircle
 10
10741.0596986615
 20
-677.6074947156
 30
0.0
 40
10878.62500000011
100
AcDbArc
 50
180.0
 51
180.776880023
  0
CIRCLE
  5
DD
330
1F
100
AcDbEntity
  8
0
  6
Continuous
 62
     7
370
    25
100
AcDbCircle
 10
177.4346986614
 20
-517.1074947156
 30
0.0
 40
6.999999999999886
  0
CIRCLE
  5
DE
330
1F
100
AcDbEntity
  8
0
  6
Continuous
 62
     7
370
    25
100
AcDbCircle
 10
177.4346986614
 20
-517.1074947156
 30
0.0
 40
4.999999999999886
  0
CIRCLE
  5
DF
330
1F
100
AcDbEntity
  8
0
  6
Continuous
 62
     7
370
    25
100
AcDbCircle
 10
107.4346986614
 20
-517.1074947156
 30
0.0
 40
5.000000000000114
  0
CIRCLE
  5
E0
330
1F
100
AcDbEntity
  8
0
  6
Continuous
 62
     7
370
    25
100
AcDbCircle
 10
107.4346986614
 20
-517.1074947156
 30
0.0
 40
7.000000000000171
  0
CIRCLE
  5
E1
330
1F
100
AcDbEntity
  8
0
  6
Continuous
 62
     7
370
    25
100
AcDbCircle
 10
177.4346986614
 20
-813.1074947156
 30
0.0
 40
7.0
  0
CIRCLE
  5
E2
330
1F
100
AcDbEntity
  8
0
  6
Continuous
 62
     7
370
    25
100
AcDbCircle
 10
177.4346986614
 20
-813.1074947156
 30
0.0
 40
5.0
  0
CIRCLE
  5
E3
330
1F
100
AcDbEntity
  8
0
  6
Continuous
 62
     7
370
    25
100
AcDbCircle
 10
107.4346986614
 20
-813.1074947156
 30
0.0
 40
5.0
  0
CIRCLE
  5
E4
330
1F
100
AcDbEntity
  8
0
  6
Continuous
 62
     7
370
    25
100
AcDbCircle
 10
107.4346986614
 20
-813.1074947156
 30
0.0
 40
7.0
  0
LINE
  5
E5
330
1F
100
AcDbEntity
  8
0
  6
Continuous
 62
     7
370
    25
100
AcDbLine
 10
-136.5653013386
 20
-505.1074947156
 30
0.0
 11
421.4346986614
 21
-505.1074947156
 31
0.0
  0
LINE
  5
E6
330
1F
100
AcDbEntity
  8
0
  6
Continuous
 62
     7
370
    25
100
AcDbLine
 10
-136.5653013386
 20
-825.1074947156
 30
0.0
 11
421.4346986614
 21
-825.1074947156
 31
0.0
  0
LINE
  5
E7
330
1F
100
AcDbEntity
  8
0
  6
Continuous
 62
     1
370
    25
100
AcDbLine
 10
-137.5653013386
 20
-652.6074947156
 30
0.0
 11
422.4346986614
 21
-652.6074947156
 31
0.0
  0
LINE
  5
E8
330
1F
100
AcDbEntity
  8
0
  6
Continuous
 62
     1
370
    25
100
AcDbLine
 10
-137.5653013386
 20
-677.6074947156
 30
0.0
 11
422.4346986614
 21
-677.6074947156
 31
0.0
  0
INSERT
  5
F4
330
1F
100
AcDbEntity
  8
FORMAT
 62
     7
100
AcDbBlockReference
  2
SW_CENTERMARKSYMBOL_1
 10
142.4346986614
 20
-632.1074947156
 30
0.0
  0
INSERT
  5
100
330
1F
100
AcDbEntity
  8
FORMAT
 62
     7
100
AcDbBlockReference
  2
SW_CENTERMARKSYMBOL_2
 10
142.4346986614
 20
-698.1074947156
 30
0.0
  0
SPLINE
  5
101
330
1F
100
AcDbEntity
  8
0
  6
Continuous
 62
     7
370
    25
100
AcDbSpline
210
0.0
220
0.0
230
1.0
 70
     8
 71
     3
 72
    11
 73
     7
 74
     0
 42
0.00000001
 43
0.00000001
 40
0.0
 40
0.0
 40
0.0
 40
0.0
 40
0.0074625298251613
 40
0.4023371750208874
 40
0.7971831840294535
 40
1.0
 40
1.0
 40
1.0
 40
1.0
 10
715.5600148329945
 20
-405.7839258022688
 30
0.0
 10
715.2967391121058
 20
-405.9347860982198
 30
0.0
 10
701.1024092701257
 20
-414.0683154398489
 30
0.0
 10
673.128213006729
 20
-430.4446808807363
 30
0.0
 10
638.3450479830793
 20
-450.9106751062704
 30
0.0
 10
617.517088669939
 20
-463.427276416118
 30
0.0
 10
610.4491228964231
 20
-467.6747837368633
 30
0.0
  0
SPLINE
  5
102
330
1F
100
AcDbEntity
  8
0
  6
Continuous
 62
     7
370
    25
100
AcDbSpline
210
0.0
220
0.0
230
1.0
 70
     8
 71
     3
 72
    10
 73
     6
 74
     0
 42
0.00000001
 43
0.00000001
 40
0.0
 40
0.0
 40
0.0
 40
0.0
 40
0.2176721912249537
 40
0.6125740688060138
 40
1.0
 40
1.0
 40
1.0
 40
1.0
 10
889.3730113250365
 20
-950.8406012180985
 30
0.0
 10
897.1126963518958
 20
-946.5485371678473
 30
0.0
 10
918.8937530936845
 20
-934.4697910310873
 30
0.0
 10
954.2946030573366
 20
-914.4659150196806
 30
0.0
 10
981.8753345395688
 20
-898.6157859475692
 30
0.0
 10
995.5339191605684
 20
-890.7664535495268
 30
0.0
  0
LINE
  5
103
330
1F
100
AcDbEntity
  8
0
  6
Continuous
 62
     7
370
    25
100
AcDbLine
 10
733.2361283756
 20
-395.5763412397
 30
0.0
 11
715.558458846
 21
-405.7814426375
 31
0.0
  0
LINE
  5
104
330
1F
100
AcDbEntity
  8
0
  6
Continuous
 62
     7
370
    25
100
AcDbLine
 10
995.5357039841
 20
-890.7688055707
 30
0.0
 11
1013.2133735137
 21
-880.5637041729
 31
0.0
  0
SPLINE
  5
105
330
1F
100
AcDbEntity
  8
0
  6
Continuous
 62
     7
370
    25
100
AcDbSpline
210
0.0
220
0.0
230
1.0
 70
     8
 71
     3
 72
    10
 73
     6
 74
     0
 42
0.00000001
 43
0.00000001
 40
0.0
 40
0.0
 40
0.0
 40
0.0
 40
0.2176679686670306
 40
0.6125708862801202
 40
1.0
 40
1.0
 40
1.0
 40
1.0
 10
839.3983097304197
 20
-335.5048297718417
 30
0.0
 10
831.6587952780476
 20
-339.796799352585
 30
0.0
 10
809.8779092041776
 20
-351.875451191271
 30
0.0
 10
774.4771529291642
 20
-371.8792753466153
 30
0.0
 10
746.8963452136975
 20
-387.7294482084274
 30
0.0
 10
733.2376843626582
 20
-395.5788244044853
 30
0.0
  0
SPLINE
  5
106
330
1F
100
AcDbEntity
  8
0
  6
Continuous
 62
     7
370
    25
100
AcDbSpline
210
0.0
220
0.0
230
1.0
 70
     8
 71
     3
 72
    11
 73
     7
 74
     0
 42
0.00000001
 43
0.00000001
 40
0.0
 40
0.0
 40
0.0
 40
0.0
 40
0.0074645960445966
 40
0.4023341644443624
 40
0.797175097027983
 40
1.0
 40
1.0
 40
1.0
 40
1.0
 10
1013.211588690236
 20
-880.5613521517399
 30
0.0
 10
1013.474940694992
 20
-880.4104481498297
 30
0.0
 10
1027.669346950235
 20
-872.2768753272519
 30
0.0
 10
1055.643619763704
 20
-855.9004666178114
 30
0.0
 10
1090.42715835643
 20
-835.4342498398856
 30
0.0
 10
1111.255489943539
 20
-822.9174238543661
 30
0.0
 10
1118.323828272259
 20
-818.669692321125
 30
0.0
  0
LINE
  5
107
330
1F
100
AcDbEntity
  8
0
  6
Continuous
 62
     7
370
    25
100
AcDbLine
 10
791.4828499058
 20
-492.2265373079
 30
0.0
 11
791.4828499058
 21
-485.1597842495
 31
0.0
  0
LINE
  5
108
330
1F
100
AcDbEntity
  8
0
  6
Continuous
 62
     7
370
    25
100
AcDbLine
 10
777.4828499058
 20
-485.1597842495
 30
0.0
 11
777.4828499058
 21
-491.3137399899
 31
0.0
  0
LINE
  5
109
330
1F
100
AcDbEntity
  8
0
  6
Continuous
 62
     7
370
    25
100
AcDbLine
 10
741.9853752227
 20
-462.6401217378
 30
0.0
 11
741.9853752227
 21
-456.5855003357
 31
0.0
  0
LINE
  5
10A
330
1F
100
AcDbEntity
  8
0
  6
Continuous
 62
     7
370
    25
100
AcDbLine
 10
727.9853752227
 20
-456.5855003357
 30
0.0
 11
727.9853752227
 21
-463.7497357028
 31
0.0
  0
LINE
  5
10B
330
1F
100
AcDbEntity
  8
0
  6
Continuous
 62
     7
370
    25
100
AcDbLine
 10
1000.786457137
 20
-371.4993109316
 30
0.0
 11
1000.786457137
 21
-364.3313836998
 31
0.0
  0
LINE
  5
10C
330
1F
100
AcDbEntity
  8
0
  6
Continuous
 62
     7
370
    25
100
AcDbLine
 10
986.786457137
 20
-364.3313836998
 30
0.0
 11
986.786457137
 21
-370.3854803457
 31
0.0
  0
LINE
  5
10D
330
1F
100
AcDbEntity
  8
0
  6
Continuous
 62
     7
370
    25
100
AcDbLine
 10
951.2889824539
 20
-341.9115486036
 30
0.0
 11
951.2889824539
 21
-335.757099786
 31
0.0
  0
LINE
  5
10E
330
1F
100
AcDbEntity
  8
0
  6
Continuous
 62
     7
370
    25
100
AcDbLine
 10
937.2889824539
 20
-335.757099786
 30
0.0
 11
937.2889824539
 21
-342.820076409
 31
0.0
  0
LWPOLYLINE
  5
10F
330
1F
100
AcDbEntity
  8
0
  6
Continuous
 62
     7
370
    25
100
AcDbPolyline
 90
      178
 70
   128
 43
0.0
 10
553.966039239
 20
-594.5962907517
 10
554.0903265545
 20
-586.5827151931
 10
554.4630319002
 20
-578.7227357512
 10
555.0836856705
 20
-571.026255933
 10
555.9515058469
 20
-563.5029732371
 10
557.0653989834
 20
-556.1623669356
 10
558.4239615843
 20
-549.0136861295
 10
560.0254818722
 20
-542.0659380956
 10
561.8679419454
 20
-535.3278769369
 10
563.9490203197
 20
-528.807992553
 10
566.2660948544
 20
-522.5144999424
 10
568.8162460552
 20
-516.455328852
 10
571.5962607535
 20
-510.6381137855
 10
574.6026361545
 20
-505.0701843843
 10
577.8315842509
 20
-499.7585561916
 10
581.2790365958
 20
-494.7099218138
 10
584.9406494286
 20
-489.9306424868
 10
588.8118091485
 20
-485.4267400618
 10
592.8876381274
 20
-481.2038894174
 10
597.1630008555
 20
-477.2674113092
 10
601.6325104124
 20
-473.622265666
 10
606.2905352543
 20
-470.2730453402
 10
611.1312063096
 20
-467.2239703206
 10
616.1484243743
 20
-464.4788824159
 10
621.3358677965
 20
-462.0412404132
 10
626.6870004418
 20
-459.9141157207
 10
632.1950799289
 20
-458.1001884972
 10
637.8531661246
 20
-456.6017442756
 10
643.6541298888
 20
-455.4206710828
 10
649.5906620567
 20
-454.5584570609
 10
655.6552826485
 20
-454.0161885922
 10
661.8403502941
 20
-453.7945489303
 10
668.1380718613
 20
-453.8938173393
 10
674.5405122746
 20
-454.3138687419
 10
681.0396045138
 20
-455.0541738769
 10
687.6271597784
 20
-456.1137999661
 10
694.2948778051
 20
-457.4914118897
 10
701.034357326
 20
-459.1852738685
 10
707.8371066546
 20
-461.193251651
 10
714.6945543851
 20
-463.5128152021
 10
721.5980601917
 20
-466.1410418917
 10
728.5389257163
 20
-469.0746201767
 10
735.5084055276
 20
-472.3098537735
 10
742.4977181407
 20
-475.8426663154
 10
749.4980570813
 20
-479.6686064887
 10
756.5006019824
 20
-483.7828536417
 10
763.4965296972
 20
-488.1802238581
 10
770.4770254166
 20
-492.855176489
 10
777.4332937757
 20
-497.801821134
 10
784.3565699358
 20
-503.0139250632
 10
791.2381306281
 20
-508.4849210702
 10
798.0693051451
 20
-514.2079157468
 10
804.8414862652
 20
-520.1756981687
 10
811.5461410981
 20
-526.380748981
 10
818.1748218361
 20
-532.8152498728
 10
824.719176398
 20
-539.4710934279
 10
831.1709589532
 20
-546.3398933404
 10
837.5220403108
 20
-553.4129949811
 10
843.7644181624
 20
-560.6814863024
 10
849.8902271655
 20
-568.1362090674
 10
855.8917488531
 20
-575.7677703892
 10
861.7614213591
 20
-583.5665545657
 10
867.4918489463
 20
-591.5227351956
 10
873.0758113251
 20
-599.6262875592
 10
878.5062727505
 20
-607.86700125
 10
883.7763908876
 20
-616.234493039
 10
888.8795254326
 20
-624.7182199583
 10
893.8092464795
 20
-633.3074925843
 10
898.5593426221
 20
-641.9914885071
 10
903.1238287799
 20
-650.759265966
 10
907.4969537391
 20
-659.5997776364
 10
911.6732073999
 20
-668.5018845492
 10
915.6473277183
 20
-677.4543701258
 10
919.4143073366
 20
-686.4459543108
 10
922.9693998928
 20
-695.4653077851
 10
926.3081260007
 20
-704.5010662405
 10
929.4262788939
 20
-713.5418446985
 10
932.3199297263
 20
-722.5762518556
 10
934.9854325228
 20
-731.5929044359
 10
937.4194287725
 20
-740.5804415345
 10
939.6188516611
 20
-749.5275389312
 10
941.5809299344
 20
-758.42292336
 10
943.3031913906
 20
-767.2553867125
 10
944.783465995
 20
-776.0138001604
 10
946.0198886143
 20
-784.6871281776
 10
947.0109013666
 20
-793.2644424449
 10
947.7552555842
 20
-801.7349356199
 10
948.2520133871
 20
-810.0879349533
 10
948.5005488649
 20
-818.3129157377
 10
948.5005488649
 20
-826.3995145673
 10
948.2520133871
 20
-834.337542397
 10
947.7552555842
 20
-842.1169973794
 10
947.0109013666
 20
-849.7280774678
 10
946.0198886143
 20
-857.1611927664
 10
944.783465995
 20
-864.4069776135
 10
943.3031913906
 20
-871.4563023821
 10
941.5809299344
 20
-878.3002849832
 10
939.6188516611
 20
-884.9303020573
 10
937.4194287725
 20
-891.3379998396
 10
934.9854325228
 20
-897.5153046857
 10
932.3199297263
 20
-903.4544332442
 10
929.4262788939
 20
-909.147902264
 10
926.3081260007
 20
-914.5885380227
 10
922.9693998928
 20
-919.7694853659
 10
919.4143073366
 20
-924.6842163442
 10
915.6473277183
 20
-929.3265384385
 10
911.6732073999
 20
-933.6906023627
 10
907.4969537391
 20
-937.7709094337
 10
903.1238287798
 20
-941.5623184993
 10
898.5593426221
 20
-945.0600524165
 10
893.8092464795
 20
-948.2597040706
 10
888.8795254326
 20
-951.1572419278
 10
883.7763908876
 20
-953.7490151152
 10
878.5062727505
 20
-956.0317580207
 10
873.0758113251
 20
-958.0025944077
 10
867.4918489463
 20
-959.6590410394
 10
861.7614213591
 20
-960.999010807
 10
855.8917488531
 20
-962.0208153602
 10
849.8902271655
 20
-962.7231672339
 10
843.7644181624
 20
-963.1051814708
 10
837.5220403108
 20
-963.1663767361
 10
831.1709589532
 20
-962.9066759245
 10
824.719176398
 20
-962.3264062567
 10
818.1748218361
 20
-961.4262988675
 10
811.5461410981
 20
-960.2074878845
 10
804.8414862652
 20
-958.6715089992
 10
798.0693051451
 20
-956.8202975318
 10
791.2381306281
 20
-954.6561859929
 10
784.3565699358
 20
-952.1819011446
 10
777.4332937757
 20
-949.4005605646
 10
770.4770254166
 20
-946.3156687183
 10
763.4965296972
 20
-942.931112543
 10
756.5006019824
 20
-939.2511565506
 10
749.4980570813
 20
-935.2804374541
 10
742.4977181407
 20
-931.0239583257
 10
735.5084055276
 20
-926.4870822927
 10
728.5389257163
 20
-921.6755257801
 10
721.5980601917
 20
-916.5953513079
 10
714.694554385
 20
-911.2529598526
 10
707.8371066546
 20
-905.6550827817
 10
701.034357326
 20
-899.8087733724
 10
694.2948778051
 20
-893.7213979247
 10
687.6271597784
 20
-887.4006264795
 10
681.0396045138
 20
-880.8544231548
 10
674.5405122746
 20
-874.0910361109
 10
668.1380718613
 20
-867.1189871575
 10
661.8403502941
 20
-859.9470610169
 10
655.6552826485
 20
-852.5842942545
 10
649.5906620567
 20
-845.0399638935
 10
643.6541298888
 20
-837.3235757258
 10
637.8531661246
 20
-829.4448523343
 10
632.1950799289
 20
-821.4137208433
 10
626.6870004418
 20
-813.2403004097
 10
621.3358677965
 20
-804.9348894735
 10
616.1484243743
 20
-796.5079527813
 10
611.1312063096
 20
-787.9701082013
 10
606.2905352543
 20
-779.3321133448
 10
601.6325104124
 20
-770.6048520113
 10
597.1630008555
 20
-761.7993204756
 10
592.8876381274
 20
-752.9266136321
 10
588.8118091485
 20
-743.9979110156
 10
584.9406494286
 20
-735.024462715
 10
581.2790365958
 20
-726.0175751984
 10
577.8315842509
 20
-716.9885970671
 10
574.6026361545
 20
-707.9489047564
 10
571.5962607535
 20
-698.9098882013
 10
568.8162460552
 20
-689.8829364854
 10
566.2660948544
 20
-680.8794234906
 10
563.9490203197
 20
-671.9106935663
 10
561.8679419454
 20
-662.9880472356
 10
560.0254818722
 20
-654.1227269565
 10
558.4239615843
 20
-645.3259029568
 10
557.0653989834
 20
-636.6086591596
 10
555.9515058469
 20
-627.9819792174
 10
555.0836856705
 20
-619.4567326733
 10
554.4630319002
 20
-611.0436612649
 10
554.0903265545
 20
-602.7533653905
 10
553.966039239
 20
-594.5962907517
  0
SPLINE
  5
110
330
1F
100
AcDbEntity
  8
0
  6
Continuous
 62
     7
370
    25
100
AcDbSpline
210
0.0
220
0.0
230
1.0
 70
     8
 71
     3
 72
    13
 73
     9
 74
     0
 42
0.00000001
 43
0.00000001
 40
0.0
 40
0.0
 40
0.0
 40
0.0
 40
0.1918169230890586
 40
0.3835994592795712
 40
0.5762324094173725
 40
0.7698112761701599
 40
0.9635675249110527
 40
1.0
 40
1.0
 40
1.0
 40
1.0
 10
736.2882488517681
 20
-466.620347843638
 30
0.0
 10
735.4982507847028
 20
-466.7116213310601
 30
0.0
 10
733.9183962730262
 20
-466.894151943364
 30
0.0
 10
731.6382764376963
 20
-466.6477712706086
 30
0.0
 10
729.7250290275632
 20
-466.0505803265193
 30
0.0
 10
728.471458483194
 20
-465.1276639631976
 30
0.0
 10
727.9060045536417
 20
-464.3092686032608
 30
0.0
 10
728.0277347548006
 20
-463.8294418161278
 30
0.0
 10
728.0470012612024
 20
-463.7534985762576
 30
0.0
  0
SPLINE
  5
111
330
1F
100
AcDbEntity
  8
0
  6
Continuous
 62
     7
370
    25
100
AcDbSpline
210
0.0
220
0.0
230
1.0
 70
     8
 71
     3
 72
    12
 73
     8
 74
     0
 42
0.00000001
 43
0.00000001
 40
0.0
 40
0.0
 40
0.0
 40
0.0
 40
0.1215119229031411
 40
0.3650612908526496
 40
0.6076036038622582
 40
0.8498688985899838
 40
1.0
 40
1.0
 40
1.0
 40
1.0
 10
741.8851461819512
 20
-462.6402068032785
 30
0.0
 10
741.9047579732356
 20
-462.8430117202945
 30
0.0
 10
741.9636781653545
 20
-463.4523035743631
 30
0.0
 10
741.203719545961
 20
-464.4929779638478
 30
0.0
 10
739.7468018420602
 20
-465.5657406278263
 30
0.0
 10
737.9808030184636
 20
-466.2802363513088
 30
0.0
 10
736.7566214640149
 20
-466.5262303782995
 30
0.0
 10
736.2882488517681
 20
-466.620347843638
 30
0.0
  0
SPLINE
  5
112
330
1F
100
AcDbEntity
  8
0
  6
Continuous
 62
     7
370
    25
100
AcDbSpline
210
0.0
220
0.0
230
1.0
 70
     8
 71
     3
 72
    12
 73
     8
 74
     0
 42
0.00000001
 43
0.00000001
 40
0.0
 40
0.0
 40
0.0
 40
0.0
 40
0.2162145501086819
 40
0.4323832011228526
 40
0.6495262257423062
 40
0.8667612042840535
 40
1.0
 40
1.0
 40
1.0
 40
1.0
 10
784.4537918557447
 20
-496.3683582965166
 30
0.0
 10
783.6632895722488
 20
-496.2546296519539
 30
0.0
 10
782.0824528169933
 20
-496.0271965057082
 30
0.0
 10
779.9800348826229
 20
-495.0700732867685
 30
0.0
 10
778.41924075821
 20
-493.7873614393838
 30
0.0
 10
777.5498942709222
 20
-492.4598436048159
 30
0.0
 10
777.5703901802631
 20
-491.6278700419253
 30
0.0
 10
777.578182062219
 20
-491.3115805968112
 30
0.0
  0
SPLINE
  5
113
330
1F
100
AcDbEntity
  8
0
  6
Continuous
 62
     7
370
    25
100
AcDbSpline
210
0.0
220
0.0
230
1.0
 70
     8
 71
     3
 72
    13
 73
     9
 74
     0
 42
0.00000001
 43
0.00000001
 40
0.0
 40
0.0
 40
0.0
 40
0.0
 40
0.0154762285960231
 40
0.2319700862420198
 40
0.446363525686235
 40
0.6586042656838412
 40
0.8699648658397036
 40
1.0
 40
1.0
 40
1.0
 40
1.0
 10
791.456193184643
 20
-492.2287985573233
 30
0.0
 10
791.4649608230814
 20
-492.2665366889266
 30
0.0
 10
791.5963771970435
 20
-492.8321859741066
 30
0.0
 10
791.0981482649076
 20
-493.8999649335922
 30
0.0
 10
789.9456403824694
 20
-495.1927602437257
 30
0.0
 10
788.1057313309178
 20
-496.0733464305904
 30
0.0
 10
786.1784568999896
 20
-496.4352528436905
 30
0.0
 10
784.9295075235259
 20
-496.3868098702212
 30
0.0
 10
784.4537918557447
 20
-496.3683582965166
 30
0.0
  0
LWPOLYLINE
  5
114
330
1F
100
AcDbEntity
  8
0
  6
Continuous
 62
     7
370
    25
100
AcDbPolyline
 90
      160
 70
   128
 43
0.0
 10
592.149805423
 20
-616.639309771
 10
592.2740125443
 20
-609.4527931235
 10
592.6464399734
 20
-602.4209038584
 10
593.2665062092
 20
-595.554621436
 10
594.1332430918
 20
-588.8646667413
 10
595.2452973145
 20
-582.3614853444
 10
596.6009325366
 20
-576.055231191
 10
598.1980320947
 20
-569.9557507484
 10
600.0341023073
 20
-564.0725676313
 10
602.1062763688
 20
-558.4148677317
 10
604.4113188253
 20
-552.9914848765
 10
606.9456306268
 20
-547.810887034
 10
609.7052547461
 20
-542.881163093
 10
612.6858823577
 20
-538.2100102322
 10
615.8828595656
 20
-533.8047219021
 10
619.2911946693
 20
-529.6721764378
 10
622.9055659581
 20
-525.8188263182
 10
626.7203300202
 20
-522.2506880922
 10
630.7295305546
 20
-518.9733329841
 10
634.9269076703
 20
-515.9918781948
 10
639.3059076614
 20
-513.3109789121
 10
643.8596932392
 20
-510.9348210419
 10
648.581154208
 20
-508.8671146727
 10
653.462918567
 20
-507.1110882826
 10
658.4973640208
 20
-505.6694836983
 10
663.6766298802
 20
-504.5445518142
 10
668.9926293365
 20
-503.738049078
 10
674.4370620877
 20
-503.2512347478
 10
680.0014272981
 20
-503.0848689266
 10
685.6770368722
 20
-503.2392113747
 10
691.4550290193
 20
-503.7140211048
 10
697.3263820905
 20
-504.5085567579
 10
703.281928665
 20
-505.6215777608
 10
709.3123698637
 20
-507.0513462633
 10
715.4082898687
 20
-508.7956298517
 10
721.5601706244
 20
-510.8517050343
 10
727.7584066994
 20
-513.2163614936
 10
733.9933202837
 20
-515.8859070993
 10
740.2551762999
 20
-518.8561736729
 10
746.5341976032
 20
-522.1225234956
 10
752.8205802472
 20
-525.6798565501
 10
759.1045087916
 20
-529.5226184829
 10
765.376171628
 20
-533.6448092776
 10
771.6257762993
 20
-538.0399926224
 10
777.8435647897
 20
-542.7013059604
 10
784.0198287605
 20
-547.6214712041
 10
790.1449247088
 20
-552.7928060996
 10
796.2092890244
 20
-558.2072362212
 10
802.2034529221
 20
-563.8563075791
 10
808.1180572267
 20
-569.731199819
 10
813.9438669856
 20
-575.8227399939
 10
819.6717858885
 20
-582.121416887
 10
825.2928704699
 20
-588.6173958621
 10
830.7983440735
 20
-595.3005342191
 10
836.1796105558
 20
-602.1603970307
 10
841.4282677081
 20
-609.1862734356
 10
846.5361203752
 20
-616.3671933618
 10
851.4951932515
 20
-623.6919446551
 10
856.2977433334
 20
-631.1490905859
 10
860.936272009
 20
-638.7269877062
 10
865.4035367665
 20
-646.4138040291
 10
869.6925625022
 20
-654.1975375034
 10
873.7966524116
 20
-662.0660347532
 10
877.7093984454
 20
-670.0070100541
 10
881.4246913153
 20
-678.008064516
 10
884.9367300323
 20
-686.0567054419
 10
888.2400309651
 20
-694.1403658345
 10
891.3294364012
 20
-702.2464240178
 10
894.2001226008
 20
-710.3622233441
 10
896.8476073283
 20
-718.4750919561
 10
899.2677568504
 20
-726.5723625726
 10
901.456792391
 20
-734.6413922668
 10
903.411296031
 20
-742.6695822065
 10
905.1282160448
 20
-750.6443973263
 10
906.6048716659
 20
-758.5533858989
 10
907.8389572715
 20
-766.3841989776
 10
908.8285459837
 20
-774.1246096773
 10
909.572092677
 20
-781.7625322655
 10
910.0684363917
 20
-789.2860410329
 10
910.3168021458
 20
-796.6833889135
 10
910.3168021458
 20
-803.9430258268
 10
910.0684363917
 20
-811.0536167115
 10
909.572092677
 20
-818.004059224
 10
908.8285459837
 20
-824.7835010734
 10
907.8389572715
 20
-831.381356966
 10
906.6048716659
 20
-837.7873251331
 10
905.1282160448
 20
-843.9914034157
 10
903.411296031
 20
-849.9839048822
 10
901.456792391
 20
-855.7554729528
 10
899.2677568504
 20
-861.2970960091
 10
896.8476073283
 20
-866.6001214646
 10
894.2001226008
 20
-871.6562692744
 10
891.3294364012
 20
-876.4576448641
 10
888.2400309651
 20
-880.9967514555
 10
884.9367300323
 20
-885.2665017726
 10
881.4246913153
 20
-889.260229107
 10
877.7093984454
 20
-892.9716977277
 10
873.7966524116
 20
-896.395112617
 10
869.6925625022
 20
-899.5251285188
 10
865.4035367665
 20
-902.356858285
 10
860.936272009
 20
-904.8858805056
 10
856.2977433334
 20
-907.1082464127
 10
851.4951932515
 20
-909.0204860457
 10
846.5361203752
 20
-910.6196136694
 10
841.4282677081
 20
-911.9031324358
 10
836.1796105558
 20
-912.8690382828
 10
830.7983440735
 20
-913.515823063
 10
825.2928704699
 20
-913.8424768988
 10
819.6717858885
 20
-913.848489759
 10
813.9438669856
 20
-913.5338522553
 10
808.1180572267
 20
-912.8990556567
 10
802.2034529221
 20
-911.9450911227
 10
796.2092890244
 20
-910.6734481558
 10
790.1449247088
 20
-909.0861122755
 10
784.0198287605
 20
-907.1855619184
 10
777.8435647897
 20
-904.9747645681
 10
771.6257762993
 20
-902.4571721225
 10
765.376171628
 20
-899.636715503
 10
759.1045087916
 20
-896.5177985181
 10
752.8205802472
 20
-893.1052909863
 10
746.5341976032
 20
-889.4045211331
 10
740.2551762999
 20
-885.4212672712
 10
733.9933202837
 20
-881.1617487788
 10
727.7584066994
 20
-876.6326163882
 10
721.5601706244
 20
-871.8409418022
 10
715.4082898687
 20
-866.7942066517
 10
709.3123698637
 20
-861.5002908147
 10
703.281928665
 20
-855.9674601122
 10
697.3263820905
 20
-850.2043534027
 10
691.4550290193
 20
-844.2199690931
 10
685.6770368722
 20
-838.0236510892
 10
680.0014272981
 20
-831.6250742059
 10
674.4370620876
 20
-825.0342290615
 10
668.9926293365
 20
-818.2614064784
 10
663.6766298802
 20
-811.3171814149
 10
658.4973640208
 20
-804.2123964543
 10
653.462918567
 20
-796.9581448748
 10
648.581154208
 20
-789.5657533291
 10
643.8596932392
 20
-782.0467641592
 10
639.3059076614
 20
-774.412917374
 10
634.9269076703
 20
-766.6761323191
 10
630.7295305546
 20
-758.848489066
 10
626.7203300202
 20
-750.9422095504
 10
622.9055659581
 20
-742.9696384892
 10
619.2911946693
 20
-734.9432241057
 10
615.8828595656
 20
-726.8754986933
 10
612.6858823577
 20
-718.7790590475
 10
609.7052547461
 20
-710.6665467975
 10
606.9456306268
 20
-702.5506286684
 10
604.4113188253
 20
-694.4439767029
 10
602.1062763688
 20
-686.3592484756
 10
600.0341023073
 20
-678.30906733
 10
598.1980320947
 20
-670.3060026684
 10
596.6009325366
 20
-662.3625503262
 10
595.2452973145
 20
-654.4911130612
 10
594.1332430918
 20
-646.7039811884
 10
593.2665062092
 20
-639.0133133898
 10
592.6464399734
 20
-631.4311177302
 10
592.2740125443
 20
-623.9692329082
 10
592.149805423
 20
-616.639309771
  0
LWPOLYLINE
  5
115
330
1F
100
AcDbEntity
  8
0
  6
Continuous
 62
     7
370
    25
100
AcDbPolyline
 90
       18
 70
   128
 43
0.0
 10
839.378187169
 20
-335.4713079483
 10
842.422594354
 20
-333.8535845243
 10
847.6100377762
 20
-331.4159425216
 10
852.9611704215
 20
-329.288817829
 10
858.4692499086
 20
-327.4748906056
 10
864.1273361043
 20
-325.976446384
 10
869.9282998685
 20
-324.7953731912
 10
875.8648320363
 20
-323.9331591693
 10
881.9294526282
 20
-323.3908907006
 10
888.1145202738
 20
-323.1692510387
 10
894.412241841
 20
-323.2685194477
 10
900.8146822543
 20
-323.6885708503
 10
907.3137744935
 20
-324.4288759852
 10
913.9013297581
 20
-325.4885020744
 10
920.5690477848
 20
-326.8661139981
 10
927.3085273057
 20
-328.5599759769
 10
934.1112766343
 20
-330.5679537593
 10
940.0267259287
 20
-332.5515583341
  0
ARC
  5
116
330
1F
100
AcDbEntity
  8
0
  6
Continuous
 62
     7
370
    25
100
AcDbCircle
 10
850.5994098798
 20
-571.1180590529
 30
0.0
 40
254.9223645031082
100
AcDbArc
 50
55.7943001089
 51
66.7351908236
  0
LWPOLYLINE
  5
117
330
1F
100
AcDbEntity
  8
0
  6
Continuous
 62
     7
370
    25
100
AcDbPolyline
 90
       65
 70
   128
 43
0.0
 10
1000.786457137
 20
-365.0641693566
 10
1003.7074637554
 20
-367.1765232424
 10
1010.6307399155
 20
-372.3886271716
 10
1017.5123006078
 20
-377.8596231786
 10
1024.3434751248
 20
-383.5826178552
 10
1031.1156562449
 20
-389.5504002771
 10
1037.8203110778
 20
-395.7554510894
 10
1044.4489918158
 20
-402.1899519812
 10
1050.9933463777
 20
-408.8457955363
 10
1057.4451289329
 20
-415.7145954488
 10
1063.7962102905
 20
-422.7876970894
 10
1070.0385881421
 20
-430.0561884108
 10
1076.1643971452
 20
-437.5109111758
 10
1082.1659188328
 20
-445.1424724976
 10
1088.0355913388
 20
-452.9412566741
 10
1093.766018926
 20
-460.8974373039
 10
1099.3499813048
 20
-469.0009896676
 10
1104.7804427302
 20
-477.2417033583
 10
1110.0505608673
 20
-485.6091951474
 10
1115.1536954123
 20
-494.0929220666
 10
1120.0834164592
 20
-502.6821946927
 10
1124.8335126018
 20
-511.3661906155
 10
1129.3979987595
 20
-520.1339680744
 10
1133.7711237188
 20
-528.9744797448
 10
1137.9473773796
 20
-537.8765866576
 10
1141.921497698
 20
-546.8290722341
 10
1145.6884773163
 20
-555.8206564192
 10
1149.2435698725
 20
-564.8400098935
 10
1152.5822959804
 20
-573.8757683489
 10
1155.7004488736
 20
-582.9165468069
 10
1158.594099706
 20
-591.9509539639
 10
1161.2596025025
 20
-600.9676065443
 10
1163.6935987522
 20
-609.9551436428
 10
1165.8930216408
 20
-618.9022410396
 10
1167.8550999141
 20
-627.7976254684
 10
1169.5773613703
 20
-636.6300888209
 10
1171.0576359747
 20
-645.3885022687
 10
1172.294058594
 20
-654.0618302859
 10
1173.2850713463
 20
-662.6391445533
 10
1174.0294255638
 20
-671.1096377282
 10
1174.5261833668
 20
-679.4626370617
 10
1174.7747188446
 20
-687.687617846
 10
1174.7747188446
 20
-695.7742166757
 10
1174.5261833668
 20
-703.7122445053
 10
1174.0294255638
 20
-711.4916994878
 10
1173.2850713463
 20
-719.1027795762
 10
1172.294058594
 20
-726.5358948748
 10
1171.0576359747
 20
-733.7816797219
 10
1169.5773613703
 20
-740.8310044904
 10
1167.8550999141
 20
-747.6749870916
 10
1165.8930216408
 20
-754.3050041657
 10
1163.6935987522
 20
-760.712701948
 10
1161.2596025025
 20
-766.890006794
 10
1158.594099706
 20
-772.8291353526
 10
1155.7004488736
 20
-778.5226043723
 10
1152.5822959804
 20
-783.9632401311
 10
1149.2435698725
 20
-789.1441874743
 10
1145.6884773163
 20
-794.0589184525
 10
1141.921497698
 20
-798.7012405469
 10
1137.9473773796
 20
-803.0653044711
 10
1133.7711237188
 20
-807.145611542
 10
1129.3979987595
 20
-810.9370206076
 10
1124.8335126018
 20
-814.4347545249
 10
1120.0834164592
 20
-817.634406179
 10
1118.3427692274
 20
-818.7043211785
  0
SPLINE
  5
118
330
1F
100
AcDbEntity
  8
0
  6
Continuous
 62
     7
370
    25
100
AcDbSpline
210
0.0
220
0.0
230
1.0
 70
     8
 71
     3
 72
    12
 73
     8
 74
     0
 42
0.00000001
 43
0.00000001
 40
0.0
 40
0.0
 40
0.0
 40
0.0
 40
0.2168996547381873
 40
0.4337679690670661
 40
0.6512063707256496
 40
0.8680409497127188
 40
1.0
 40
1.0
 40
1.0
 40
1.0
 10
993.764394888385
 20
-375.4384486873616
 30
0.0
 10
992.9721450406097
 20
-375.3146041140122
 30
0.0
 10
991.3877598193515
 20
-375.0669328619458
 30
0.0
 10
989.2800573356309
 20
-374.0946214932131
 30
0.0
 10
987.7182787399266
 20
-372.8121810140535
 30
0.0
 10
986.8519512726195
 20
-371.5007621375834
 30
0.0
 10
986.8735170154566
 20
-370.6900909335983
 30
0.0
 10
986.8816759802561
 20
-370.3833897980423
 30
0.0
  0
SPLINE
  5
119
330
1F
100
AcDbEntity
  8
0
  6
Continuous
 62
     7
370
    25
100
AcDbSpline
210
0.0
220
0.0
230
1.0
 70
     8
 71
     3
 72
    13
 73
     9
 74
     0
 42
0.00000001
 43
0.00000001
 40
0.0
 40
0.0
 40
0.0
 40
0.0
 40
0.0165363254041776
 40
0.2321582975854075
 40
0.4456148307615333
 40
0.6573948307382591
 40
0.8690615982140626
 40
1.0
 40
1.0
 40
1.0
 40
1.0
 10
1000.758106626625
 20
-371.501686160215
 30
0.0
 10
1000.767419688411
 20
-371.5413305825465
 30
0.0
 10
1000.898168480349
 20
-372.0979101957487
 30
0.0
 10
1000.399803884811
 20
-373.1334474972892
 30
0.0
 10
999.2501017395203
 20
-374.3751733124306
 30
0.0
 10
997.4169865582622
 20
-375.2057563495725
 30
0.0
 10
995.4925289624015
 20
-375.5305623894748
 30
0.0
 10
994.2422371135955
 20
-375.4639188271223
 30
0.0
 10
993.764394888385
 20
-375.4384486873617
 30
0.0
  0
SPLINE
  5
11A
330
1F
100
AcDbEntity
  8
0
  6
Continuous
 62
     7
370
    25
100
AcDbSpline
210
0.0
220
0.0
230
1.0
 70
     8
 71
     3
 72
    13
 73
     9
 74
     0
 42
0.00000001
 43
0.00000001
 40
0.0
 40
0.0
 40
0.0
 40
0.0
 40
0.1907763884663344
 40
0.3815183595849607
 40
0.5731534453990962
 40
0.7661212643652245
 40
0.9598811701337447
 40
1.0
 40
1.0
 40
1.0
 40
1.0
 10
945.6077040760791
 20
-345.7089235279618
 30
0.0
 10
944.8201505247845
 20
-345.7885189422963
 30
0.0
 10
943.24518550217
 20
-345.9476954114155
 30
0.0
 10
940.9687065104379
 20
-345.6848471342427
 30
0.0
 10
939.0548545902618
 20
-345.0873247228704
 30
0.0
 10
937.7908436558703
 20
-344.1816631533031
 30
0.0
 10
937.2151387903997
 20
-343.3765374136081
 30
0.0
 10
937.334895787324
 20
-342.9048169896441
 30
0.0
 10
937.3554385295781
 20
-342.8238995373493
 30
0.0
  0
SPLINE
  5
11B
330
1F
100
AcDbEntity
  8
0
  6
Continuous
 62
     7
370
    25
100
AcDbSpline
210
0.0
220
0.0
230
1.0
 70
     8
 71
     3
 72
    12
 73
     8
 74
     0
 42
0.00000001
 43
0.00000001
 40
0.0
 40
0.0
 40
0.0
 40
0.0
 40
0.1179801678784529
 40
0.3629606004018824
 40
0.6066441246182769
 40
0.8495058225462807
 40
1.0
 40
1.0
 40
1.0
 40
1.0
 10
951.1884432180046
 20
-341.9119669836622
 30
0.0
 10
951.20924433533
 20
-342.1028757640056
 30
0.0
 10
951.2732380231612
 20
-342.6901979112907
 30
0.0
 10
950.5222093382206
 20
-343.6900773538002
 30
0.0
 10
949.0697062201699
 20
-344.7200325187986
 30
0.0
 10
947.3027386149784
 20
-345.3968537598652
 30
0.0
 10
946.0767540051124
 20
-345.6225675869943
 30
0.0
 10
945.6077040760791
 20
-345.7089235279618
 30
0.0
  0
LWPOLYLINE
  5
11C
330
1F
100
AcDbEntity
  8
0
  6
Continuous
 62
     7
370
    25
100
AcDbPolyline
 90
       29
 70
   128
 43
0.0
 10
789.4325973741
 20
-482.3023558582
 10
790.4099193004
 20
-483.0098351881
 10
791.0900332179
 20
-483.8251219414
 10
791.438835375
 20
-484.7073342358
 10
791.438835375
 20
-485.6122342632
 10
791.0900332179
 20
-486.4944465577
 10
790.4099193004
 20
-487.309733311
 10
789.4325973741
 20
-488.0172126409
 10
788.2070744414
 20
-488.5814085797
 10
786.7948033395
 20
-488.9740299871
 10
785.2666012385
 20
-489.1753891864
 10
783.699098573
 20
-489.1753891864
 10
782.1708964721
 20
-488.9740299871
 10
780.7586253702
 20
-488.5814085797
 10
779.5331024375
 20
-488.0172126409
 10
778.5557805112
 20
-487.309733311
 10
777.8756665936
 20
-486.4944465577
 10
777.5268644365
 20
-485.6122342632
 10
777.5268644365
 20
-484.7073342358
 10
777.8756665936
 20
-483.8251219414
 10
778.5557805112
 20
-483.0098351881
 10
779.5331024375
 20
-482.3023558582
 10
780.7586253702
 20
-481.7381599194
 10
782.1708964721
 20
-481.3455385119
 10
783.699098573
 20
-481.1441793127
 10
785.2666012385
 20
-481.1441793127
 10
786.7948033395
 20
-481.3455385119
 10
788.2070744414
 20
-481.7381599194
 10
789.4325973741
 20
-482.3023558582
  0
LWPOLYLINE
  5
11D
330
1F
100
AcDbEntity
  8
0
  6
Continuous
 62
     7
370
    25
100
AcDbPolyline
 90
       24
 70
   128
 43
0.0
 10
788.0183838117
 20
-483.11876397
 10
788.8411522559
 20
-483.7451112198
 10
789.3406853528
 20
-484.4763782966
 10
789.4799350176
 20
-485.2583304665
 10
789.2485737398
 20
-486.0329739143
 10
788.663760527
 20
-486.7428568792
 10
787.7688682999
 20
-487.3353305893
 10
786.6302671209
 20
-487.7664539799
 10
785.3324018309
 20
-488.0042526012
 10
783.9715291611
 20
-488.0310900175
 10
782.6485788117
 20
-487.8449758203
 10
781.4616679582
 20
-487.4597132483
 10
780.4988243487
 20
-486.9038754639
 10
779.8314576891
 20
-486.2186864128
 10
779.5090635115
 20
-485.4549634324
 10
779.5555523172
 20
-484.6693483624
 10
779.9674762441
 20
-483.9201066785
 10
780.7142847791
 20
-483.2628062089
 10
781.7405905495
 20
-482.7461959225
 10
782.9702771514
 20
-482.4085904409
 10
784.3121443548
 20
-482.2750284182
 10
785.6666720081
 20
-482.3554155387
 10
786.9334009917
 20
-482.6437898572
 10
788.0183838117
 20
-483.11876397
  0
LWPOLYLINE
  5
11E
330
1F
100
AcDbEntity
  8
0
  6
Continuous
 62
     7
370
    25
100
AcDbPolyline
 90
       29
 70
   128
 43
0.0
 10
730.0356277544
 20
-459.4429287271
 10
729.0583058281
 20
-458.7354493972
 10
728.3781919106
 20
-457.9201626439
 10
728.0293897535
 20
-457.0379503495
 10
728.0293897535
 20
-456.133050322
 10
728.3781919106
 20
-455.2508380276
 10
729.0583058281
 20
-454.4355512743
 10
730.0356277544
 20
-453.7280719444
 10
731.2611506871
 20
-453.1638760056
 10
732.673421789
 20
-452.7712545981
 10
734.20162389
 20
-452.5698953989
 10
735.7691265554
 20
-452.5698953989
 10
737.2973286564
 20
-452.7712545981
 10
738.7095997583
 20
-453.1638760056
 10
739.935122691
 20
-453.7280719444
 10
740.9124446173
 20
-454.4355512743
 10
741.5925585349
 20
-455.2508380276
 10
741.941360692
 20
-456.133050322
 10
741.941360692
 20
-457.0379503495
 10
741.5925585349
 20
-457.9201626439
 10
740.9124446173
 20
-458.7354493972
 10
739.935122691
 20
-459.4429287271
 10
738.7095997583
 20
-460.0071246659
 10
737.2973286564
 20
-460.3997460733
 10
735.7691265554
 20
-460.6011052726
 10
734.20162389
 20
-460.6011052726
 10
732.673421789
 20
-460.3997460733
 10
731.2611506871
 20
-460.0071246659
 10
730.0356277544
 20
-459.4429287271
  0
LWPOLYLINE
  5
11F
330
1F
100
AcDbEntity
  8
0
  6
Continuous
 62
     7
370
    25
100
AcDbPolyline
 90
       24
 70
   128
 43
0.0
 10
731.4498413168
 20
-458.6265206153
 10
730.6270728725
 20
-458.0001733655
 10
730.1275397757
 20
-457.2689062887
 10
729.9882901109
 20
-456.4869541188
 10
730.2196513886
 20
-455.712310671
 10
730.8044646014
 20
-455.002427706
 10
731.6993568286
 20
-454.4099539959
 10
732.8379580076
 20
-453.9788306054
 10
734.1358232976
 20
-453.7410319841
 10
735.4966959674
 20
-453.7141945678
 10
736.8196463168
 20
-453.900308765
 10
738.0065571703
 20
-454.285571337
 10
738.9694007798
 20
-454.8414091214
 10
739.6367674394
 20
-455.5265981725
 10
739.959161617
 20
-456.2903211529
 10
739.9126728113
 20
-457.0759362229
 10
739.5007488843
 20
-457.8251779068
 10
738.7539403493
 20
-458.4824783763
 10
737.727634579
 20
-458.9990886627
 10
736.4979479771
 20
-459.3366941443
 10
735.1560807736
 20
-459.470256167
 10
733.8015531204
 20
-459.3898690466
 10
732.5348241368
 20
-459.101494728
 10
731.4498413168
 20
-458.6265206153
  0
LWPOLYLINE
  5
120
330
1F
100
AcDbEntity
  8
0
  6
Continuous
 62
     7
370
    25
100
AcDbPolyline
 90
       29
 70
   128
 43
0.0
 10
988.8367096687
 20
-367.1888120912
 10
987.8593877424
 20
-366.4813327612
 10
987.1792738248
 20
-365.666046008
 10
986.8304716677
 20
-364.7838337135
 10
986.8304716677
 20
-363.8789336861
 10
987.1792738248
 20
-362.9967213916
 10
987.8593877424
 20
-362.1814346383
 10
988.8367096687
 20
-361.4739553084
 10
990.0622326014
 20
-360.9097593696
 10
991.4745037033
 20
-360.5171379622
 10
993.0027058043
 20
-360.3157787629
 10
994.5702084697
 20
-360.3157787629
 10
996.0984105707
 20
-360.5171379622
 10
997.5106816726
 20
-360.9097593696
 10
998.7362046053
 20
-361.4739553084
 10
999.7135265316
 20
-362.1814346383
 10
1000.3936404491
 20
-362.9967213916
 10
1000.7424426062
 20
-363.8789336861
 10
1000.7424426062
 20
-364.7838337135
 10
1000.3936404491
 20
-365.666046008
 10
999.7135265316
 20
-366.4813327612
 10
998.7362046053
 20
-367.1888120912
 10
997.5106816726
 20
-367.75300803
 10
996.0984105707
 20
-368.1456294374
 10
994.5702084697
 20
-368.3469886366
 10
993.0027058043
 20
-368.3469886366
 10
991.4745037033
 20
-368.1456294374
 10
990.0622326014
 20
-367.75300803
 10
988.8367096687
 20
-367.1888120912
  0
LWPOLYLINE
  5
121
330
1F
100
AcDbEntity
  8
0
  6
Continuous
 62
     7
370
    25
100
AcDbPolyline
 90
       24
 70
   128
 43
0.0
 10
990.2509232311
 20
-366.3724039793
 10
989.4281547868
 20
-365.7460567295
 10
988.92862169
 20
-365.0147896527
 10
988.7893720252
 20
-364.2328374828
 10
989.0207333029
 20
-363.458194035
 10
989.6055465157
 20
-362.7483110701
 10
990.5004387429
 20
-362.15583736
 10
991.6390399218
 20
-361.7247139694
 10
992.9369052118
 20
-361.4869153481
 10
994.2977778817
 20
-361.4600779318
 10
995.6207282311
 20
-361.646192129
 10
996.8076390846
 20
-362.031454701
 10
997.7704826941
 20
-362.5872924854
 10
998.4378493537
 20
-363.2724815365
 10
998.7602435313
 20
-364.0362045169
 10
998.7137547256
 20
-364.8218195869
 10
998.3018307986
 20
-365.5710612708
 10
997.5550222636
 20
-366.2283617404
 10
996.5287164932
 20
-366.7449720268
 10
995.2990298914
 20
-367.0825775084
 10
993.9571626879
 20
-367.2161395311
 10
992.6026350347
 20
-367.1357524107
 10
991.3359060511
 20
-366.8473780921
 10
990.2509232311
 20
-366.3724039793
  0
LWPOLYLINE
  5
122
330
1F
100
AcDbEntity
  8
0
  6
Continuous
 62
     7
370
    25
100
AcDbPolyline
 90
       29
 70
   128
 43
0.0
 10
949.2387299222
 20
-332.8996713946
 10
950.2160518485
 20
-333.6071507245
 10
950.8961657661
 20
-334.4224374778
 10
951.2449679232
 20
-335.3046497723
 10
951.2449679232
 20
-336.2095497997
 10
950.8961657661
 20
-337.0917620942
 10
950.2160518485
 20
-337.9070488474
 10
949.2387299222
 20
-338.6145281774
 10
948.0132069895
 20
-339.1787241162
 10
946.6009358876
 20
-339.5713455236
 10
945.0727337867
 20
-339.7727047228
 10
943.5052311212
 20
-339.7727047228
 10
941.9770290202
 20
-339.5713455236
 10
940.5647579183
 20
-339.1787241162
 10
939.3392349856
 20
-338.6145281774
 10
938.3619130593
 20
-337.9070488474
 10
937.6817991418
 20
-337.0917620942
 10
937.3329969847
 20
-336.2095497997
 10
937.3329969847
 20
-335.3046497723
 10
937.6817991418
 20
-334.4224374778
 10
938.3619130593
 20
-333.6071507245
 10
939.3392349856
 20
-332.8996713946
 10
940.5647579183
 20
-332.3354754558
 10
941.9770290202
 20
-331.9428540484
 10
943.5052311212
 20
-331.7414948491
 10
945.0727337867
 20
-331.7414948491
 10
946.6009358876
 20
-331.9428540484
 10
948.0132069895
 20
-332.3354754558
 10
949.2387299222
 20
-332.8996713946
  0
LWPOLYLINE
  5
123
330
1F
100
AcDbEntity
  8
0
  6
Continuous
 62
     7
370
    25
100
AcDbPolyline
 90
       24
 70
   128
 43
0.0
 10
947.8245163599
 20
-333.7160795064
 10
948.6472848041
 20
-334.3424267563
 10
949.1468179009
 20
-335.073693833
 10
949.2860675658
 20
-335.8556460029
 10
949.054706288
 20
-336.6302894507
 10
948.4698930752
 20
-337.3401724157
 10
947.575000848
 20
-337.9326461258
 10
946.4363996691
 20
-338.3637695163
 10
945.1385343791
 20
-338.6015681377
 10
943.7776617092
 20
-338.6284055539
 10
942.4547113599
 20
-338.4422913568
 10
941.2678005063
 20
-338.0570287847
 10
940.3049568969
 20
-337.5011910003
 10
939.6375902372
 20
-336.8160019492
 10
939.3151960596
 20
-336.0522789688
 10
939.3616848653
 20
-335.2666638988
 10
939.7736087923
 20
-334.517422215
 10
940.5204173273
 20
-333.8601217454
 10
941.5467230977
 20
-333.343511459
 10
942.7764096995
 20
-333.0059059774
 10
944.118276903
 20
-332.8723439547
 10
945.4728045563
 20
-332.9527310751
 10
946.7395335398
 20
-333.2411053937
 10
947.8245163599
 20
-333.7160795064
  0
LWPOLYLINE
  5
124
330
1F
100
AcDbEntity
  8
0
  6
Continuous
 62
     1
370
    25
100
AcDbPolyline
 90
       90
 70
   128
 43
0.0
 10
715.5581843108
 20
-405.7816011239
 10
719.9624437505
 20
-403.3942094739
 10
725.1684801599
 20
-400.9478304031
 10
730.5387924921
 20
-398.8130816077
 10
736.0666141995
 20
-396.992652853
 10
741.7449802741
 20
-395.4888378636
 10
747.5667360231
 20
-394.3035314335
 10
753.5245460841
 20
-393.4382270388
 10
759.6109036672
 20
-392.8940149554
 10
765.8181400141
 20
-392.6715808862
 10
772.13843406
 20
-392.7712050959
 10
778.5638222884
 20
-393.1927620591
 10
785.0862087651
 20
-393.9357206175
 10
791.6973753389
 20
-394.9991446497
 10
798.3889919964
 20
-396.3816942505
 10
805.1526273579
 20
-398.0816274192
 10
811.9797593007
 20
-400.0968022546
 10
818.8617856968
 20
-402.4246796536
 10
825.7900352518
 20
-405.0623265106
 10
832.7557784306
 20
-408.006419413
 10
839.7502384563
 20
-411.2532488292
 10
846.7646023691
 20
-414.7987237816
 10
853.7900321303
 20
-418.6383770022
 10
860.8176757587
 20
-422.7673705607
 10
867.8386784832
 20
-427.1805019607
 10
874.8441939005
 20
-431.8722106942
 10
881.8253951211
 20
-436.8365852483
 10
888.7734858911
 20
-442.0673705536
 10
895.6797116755
 20
-447.5579758653
 10
902.535370689
 20
-453.3014830676
 10
909.3318248597
 20
-459.2906553907
 10
916.0605107135
 20
-465.5179465285
 10
922.7129501638
 20
-471.9755101475
 10
929.2807611937
 20
-478.6552097727
 10
935.7556684175
 20
-485.5486290397
 10
942.1295135075
 20
-492.6470822991
 10
948.3942654734
 20
-499.9416255607
 10
954.5420307811
 20
-507.4230677621
 10
960.5650632991
 20
-515.0819823503
 10
966.4557740578
 20
-522.9087191583
 10
972.206740812
 20
-530.8934165646
 10
977.8107173929
 20
-539.0260139188
 10
983.2606428377
 20
-547.2962642177
 10
988.5496502871
 20
-555.6937470168
 10
993.6710756369
 20
-564.2078815594
 10
998.618465935
 20
-572.8279401089
 10
1003.3855875118
 20
-581.5430614651
 10
1007.9664338349
 20
-590.3422646496
 10
1012.3552330772
 20
-599.2144627418
 10
1016.5464553891
 20
-608.1484768478
 10
1020.5348198663
 20
-617.1330501863
 10
1024.3153012037
 20
-626.1568622716
 10
1027.8831360272
 20
-635.2085431777
 10
1031.2338288953
 20
-644.2766878641
 10
1034.3631579637
 20
-653.349870546
 10
1037.2671803045
 20
-662.4166590907
 10
1039.9422368745
 20
-671.4656294223
 10
1042.3849571251
 20
-680.4853799154
 10
1044.5922632498
 20
-689.4645457616
 10
1046.5613740617
 20
-698.3918132887
 10
1048.2898084981
 20
-707.255934216
 10
1049.7753887462
 20
-716.0457398267
 10
1051.0162429878
 20
-724.7501550411
 10
1052.0108077571
 20
-733.3582123704
 10
1052.7578299109
 20
-741.8590657359
 10
1053.2563682078
 20
-750.2420041351
 10
1053.5057944938
 20
-758.4964651373
 10
1053.5057944938
 20
-766.6120481921
 10
1053.2563682078
 20
-774.5785277344
 10
1052.7578299109
 20
-782.3858660681
 10
1052.0108077571
 20
-790.0242260134
 10
1051.0162429878
 20
-797.4839833024
 10
1049.7753887462
 20
-804.7557387044
 10
1048.2898084981
 20
-811.83032987
 10
1046.5613740617
 20
-818.6988428747
 10
1044.5922632498
 20
-825.3526234509
 10
1042.3849571251
 20
-831.7832878919
 10
1039.9422368745
 20
-837.9827336156
 10
1037.2671803045
 20
-843.9431493732
 10
1034.3631579637
 20
-849.657025092
 10
1031.2338288953
 20
-855.1171613373
 10
1027.8831360272
 20
-860.3166783843
 10
1024.3153012037
 20
-865.2490248857
 10
1020.5348198663
 20
-869.9079861274
 10
1016.5464553891
 20
-874.2876918578
 10
1012.3552330772
 20
-878.3826236853
 10
1007.9664338349
 20
-882.1876220307
 10
1003.3855875118
 20
-885.6978926286
 10
998.618465935
 20
-888.9090125682
 10
995.5356381148
 20
-890.7688435962
  0
LWPOLYLINE
  5
125
330
1F
100
AcDbEntity
  8
0
  6
Continuous
 62
     1
370
    25
100
AcDbPolyline
 90
       90
 70
   128
 43
0.0
 10
733.2361283756
 20
-395.5763412397
 10
737.6401132802
 20
-393.1891080761
 10
742.8461496896
 20
-390.7427290053
 10
748.2164620218
 20
-388.6079802099
 10
753.7442837292
 20
-386.7875514552
 10
759.4226498038
 20
-385.2837364658
 10
765.2444055528
 20
-384.0984300357
 10
771.2022156137
 20
-383.233125641
 10
777.2885731969
 20
-382.6889135577
 10
783.4958095438
 20
-382.4664794884
 10
789.8161035897
 20
-382.5661036982
 10
796.2414918181
 20
-382.9876606613
 10
802.7638782948
 20
-383.7306192197
 10
809.3750448686
 20
-384.7940432519
 10
816.0666615261
 20
-386.1765928527
 10
822.8302968876
 20
-387.8765260214
 10
829.6574288303
 20
-389.8917008568
 10
836.5394552265
 20
-392.2195782558
 10
843.4677047815
 20
-394.8572251128
 10
850.4334479603
 20
-397.8013180153
 10
857.427907986
 20
-401.0481474314
 10
864.4422718987
 20
-404.5936223838
 10
871.46770166
 20
-408.4332756044
 10
878.4953452883
 20
-412.562269163
 10
885.5163480129
 20
-416.9754005629
 10
892.5218634302
 20
-421.6671092964
 10
899.5030646508
 20
-426.6314838505
 10
906.4511554208
 20
-431.8622691558
 10
913.3573812052
 20
-437.3528744675
 10
920.2130402186
 20
-443.0963816699
 10
927.0094943893
 20
-449.0855539929
 10
933.7381802431
 20
-455.3128451307
 10
940.3906196934
 20
-461.7704087497
 10
946.9584307234
 20
-468.4501083749
 10
953.4333379472
 20
-475.3435276419
 10
959.8071830372
 20
-482.4419809014
 10
966.071935003
 20
-489.7365241629
 10
972.2197003108
 20
-497.2179663643
 10
978.2427328288
 20
-504.8768809525
 10
984.1334435875
 20
-512.7036177605
 10
989.8844103417
 20
-520.6883151668
 10
995.4883869225
 20
-528.820912521
 10
1000.9383123674
 20
-537.09116282
 10
1006.2273198168
 20
-545.488645619
 10
1011.3487451666
 20
-554.0027801616
 10
1016.2961354647
 20
-562.6228387111
 10
1021.0632570415
 20
-571.3379600673
 10
1025.6441033646
 20
-580.1371632518
 10
1030.0329026069
 20
-589.009361344
 10
1034.2241249188
 20
-597.94337545
 10
1038.212489396
 20
-606.9279487885
 10
1041.9929707334
 20
-615.9517608738
 10
1045.5608055569
 20
-625.00344178
 10
1048.911498425
 20
-634.0715864663
 10
1052.0408274934
 20
-643.1447691482
 10
1054.9448498342
 20
-652.2115576929
 10
1057.6199064041
 20
-661.2605280245
 10
1060.0626266548
 20
-670.2802785176
 10
1062.2699327795
 20
-679.2594443639
 10
1064.2390435914
 20
-688.186711891
 10
1065.9674780277
 20
-697.0508328182
 10
1067.4530582759
 20
-705.8406384289
 10
1068.6939125175
 20
-714.5450536433
 10
1069.6884772868
 20
-723.1531109726
 10
1070.4354994406
 20
-731.6539643381
 10
1070.9340377375
 20
-740.0369027373
 10
1071.1834640234
 20
-748.2913637395
 10
1071.1834640234
 20
-756.4069467944
 10
1070.9340377375
 20
-764.3734263367
 10
1070.4354994406
 20
-772.1807646703
 10
1069.6884772868
 20
-779.8191246156
 10
1068.6939125175
 20
-787.2788819046
 10
1067.4530582759
 20
-794.5506373067
 10
1065.9674780277
 20
-801.6252284722
 10
1064.2390435914
 20
-808.493741477
 10
1062.2699327795
 20
-815.1475220531
 10
1060.0626266548
 20
-821.5781864942
 10
1057.6199064041
 20
-827.7776322178
 10
1054.9448498342
 20
-833.7380479754
 10
1052.0408274934
 20
-839.4519236942
 10
1048.911498425
 20
-844.9120599396
 10
1045.5608055569
 20
-850.1115769865
 10
1041.9929707334
 20
-855.043923488
 10
1038.212489396
 20
-859.7028847296
 10
1034.2241249188
 20
-864.08259046
 10
1030.0329026069
 20
-868.1775222875
 10
1025.6441033646
 20
-871.9825206329
 10
1021.0632570415
 20
-875.4927912308
 10
1016.2961354647
 20
-878.7039111704
 10
1013.2133735137
 20
-880.5637041729
  0
ENDSEC
  0
SECTION
  2
OBJECTS
  0
DICTIONARY
  5
C
330
0
100
AcDbDictionary
281
     1
  3
ACAD_GROUP
350
D
  3
ACAD_LAYOUT
350
1A
  3
ACAD_MLINESTYLE
350
17
  3
ACAD_PLOTSETTINGS
350
19
  3
ACAD_PLOTSTYLENAME
350
E
  3
ACAD_SCALELIST
350
47
  3
DWGPROPS
350
126
  0
DICTIONARY
  5
D
102
{ACAD_REACTORS
330
C
102
}
330
C
100
AcDbDictionary
281
     1
  0
DICTIONARY
  5
1A
102
{ACAD_REACTORS
330
C
102
}
330
C
100
AcDbDictionary
281
     1
  3
Layout1
350
1E
  3
Layout2
350
26
  3
Model
350
22
  0
DICTIONARY
  5
17
102
{ACAD_REACTORS
330
C
102
}
330
C
100
AcDbDictionary
281
     1
  3
Standard
350
18
  0
DICTIONARY
  5
19
102
{ACAD_REACTORS
330
C
102
}
330
C
100
AcDbDictionary
281
     1
  0
ACDBDICTIONARYWDFLT
  5
E
102
{ACAD_REACTORS
330
C
102
}
330
C
100
AcDbDictionary
281
     1
  3
Normal
350
F
100
AcDbDictionaryWithDefault
340
F
  0
DICTIONARY
  5
47
102
{ACAD_REACTORS
330
C
102
}
330
C
100
AcDbDictionary
281
     1
  3
A0
350
48
  3
A1
350
49
  3
A2
350
4A
  3
A3
350
4B
  3
A4
350
4C
  3
A5
350
4D
  3
A6
350
4E
  3
A7
350
4F
  3
A8
350
50
  3
A9
350
51
  3
B0
350
52
  3
B1
350
53
  3
B2
350
54
  3
B3
350
55
  3
B4
350
56
  3
B5
350
57
  3
B6
350
58
  3
B7
350
59
  3
B8
350
5A
  3
B9
350
5B
  3
C0
350
5C
  3
C1
350
5D
  3
C2
350
5E
  3
C3
350
5F
  3
C4
350
60
  3
C5
350
61
  3
C6
350
62
  3
C7
350
63
  3
C8
350
64
  3
C9
350
65
  3
D0
350
66
  3
D1
350
67
  3
D2
350
68
  0
XRECORD
  5
126
102
{ACAD_REACTORS
330
C
102
}
330
C
100
AcDbXrecord
280
     1
  1
DWGPROPS COOKIE
  2

  3

  4

  6

  7

  8
b.kav
  9

300
=
301
=
302
=
303
=
304
=
305
=
306
=
307
=
308
=
309
=
 40
0.0
 41
2459935.585466319
 42
2459935.585466493
  1

 90
        0
  0
LAYOUT
  5
1E
102
{ACAD_REACTORS
330
1A
102
}
330
1A
100
AcDbPlotSettings
  1

  2
none_device
  4

  6

 40
0.0
 41
0.0
 42
0.0
 43
0.0
 44
0.0
 45
0.0
 46
0.0
 47
0.0
 48
0.0
 49
0.0
140
0.0
141
0.0
142
1.0
143
1.0
 70
   688
 72
     1
 73
     0
 74
     5
  7

 75
    16
147
1.0
148
0.0
149
0.0
100
AcDbLayout
  1
Layout1
 70
     1
 71
     1
 10
0.0
 20
0.0
 11
420.0
 21
297.0
 12
0.0
 22
0.0
 32
0.0
 14
1.0000000000E+20
 24
1.0000000000E+20
 34
1.0000000000E+20
 15
-1.0000000000E+20
 25
-1.0000000000E+20
 35
-1.0000000000E+20
146
0.0
 13
0.0
 23
0.0
 33
0.0
 16
1.0
 26
0.0
 36
0.0
 17
0.0
 27
1.0
 37
0.0
 76
     0
330
1B
  0
LAYOUT
  5
26
102
{ACAD_REACTORS
330
1A
102
}
330
1A
100
AcDbPlotSettings
  1

  2
none_device
  4

  6

 40
0.0
 41
0.0
 42
0.0
 43
0.0
 44
0.0
 45
0.0
 46
0.0
 47
0.0
 48
0.0
 49
0.0
140
0.0
141
0.0
142
1.0
143
1.0
 70
   688
 72
     1
 73
     0
 74
     5
  7

 75
    16
147
1.0
148
0.0
149
0.0
100
AcDbLayout
  1
Layout2
 70
     1
 71
     2
 10
0.0
 20
0.0
 11
0.0
 21
0.0
 12
0.0
 22
0.0
 32
0.0
 14
0.0
 24
0.0
 34
0.0
 15
0.0
 25
0.0
 35
0.0
146
0.0
 13
0.0
 23
0.0
 33
0.0
 16
1.0
 26
0.0
 36
0.0
 17
0.0
 27
1.0
 37
0.0
 76
     0
330
23
  0
LAYOUT
  5
22
102
{ACAD_REACTORS
330
1A
102
}
330
1A
100
AcDbPlotSettings
  1

  2
none_device
  4
Letter_(8.50_x_11.00_Inches)
  6

 40
6.35
 41
6.35
 42
6.35000508
 43
6.35000508
 44
215.9
 45
279.4
 46
0.0
 47
0.0
 48
0.0
 49
0.0
140
0.0
141
0.0
142
1.0
143
1.0
 70
  1712
 72
     1
 73
     0
 74
     0
  7

 75
     0
147
1.0
148
0.0
149
0.0
100
AcDbLayout
  1
Model
 70
     1
 71
     0
 10
0.0
 20
0.0
 11
279.4
 21
215.9
 12
0.0
 22
0.0
 32
0.0
 14
0.0
 24
0.0
 34
0.0
 15
279.4
 25
215.9
 35
0.0
146
0.0
 13
0.0
 23
0.0
 33
0.0
 16
1.0
 26
0.0
 36
0.0
 17
0.0
 27
1.0
 37
0.0
 76
     0
330
1F
331
29
  0
MLINESTYLE
  5
18
102
{ACAD_REACTORS
330
17
102
}
330
17
100
AcDbMlineStyle
  2
Standard
 70
     0
  3

 62
   256
 51
90.0
 52
90.0
 71
     2
 49
0.5
 62
   256
  6
BYLAYER
 49
-0.5
 62
   256
  6
BYLAYER
  0
ACDBPLACEHOLDER
  5
F
102
{ACAD_REACTORS
330
E
102
}
330
E
  0
SCALE
  5
48
102
{ACAD_REACTORS
330
47
102
}
330
47
100
AcDbScale
 70
     0
300
1:1
140
1.0
141
1.0
290
     1
  0
SCALE
  5
49
102
{ACAD_REACTORS
330
47
102
}
330
47
100
AcDbScale
 70
     0
300
1:2
140
1.0
141
2.0
290
     0
  0
SCALE
  5
4A
102
{ACAD_REACTORS
330
47
102
}
330
47
100
AcDbScale
 70
     0
300
1:4
140
1.0
141
4.0
290
     0
  0
SCALE
  5
4B
102
{ACAD_REACTORS
330
47
102
}
330
47
100
AcDbScale
 70
     0
300
1:5
140
1.0
141
5.0
290
     0
  0
SCALE
  5
4C
102
{ACAD_REACTORS
330
47
102
}
330
47
100
AcDbScale
 70
     0
300
1:8
140
1.0
141
8.0
290
     0
  0
SCALE
  5
4D
102
{ACAD_REACTORS
330
47
102
}
330
47
100
AcDbScale
 70
     0
300
1:10
140
1.0
141
10.0
290
     0
  0
SCALE
  5
4E
102
{ACAD_REACTORS
330
47
102
}
330
47
100
AcDbScale
 70
     0
300
1:16
140
1.0
141
16.0
290
     0
  0
SCALE
  5
4F
102
{ACAD_REACTORS
330
47
102
}
330
47
100
AcDbScale
 70
     0
300
1:20
140
1.0
141
20.0
290
     0
  0
SCALE
  5
50
102
{ACAD_REACTORS
330
47
102
}
330
47
100
AcDbScale
 70
     0
300
1:30
140
1.0
141
30.0
290
     0
  0
SCALE
  5
51
102
{ACAD_REACTORS
330
47
102
}
330
47
100
AcDbScale
 70
     0
300
1:40
140
1.0
141
40.0
290
     0
  0
SCALE
  5
52
102
{ACAD_REACTORS
330
47
102
}
330
47
100
AcDbScale
 70
     0
300
1:50
140
1.0
141
50.0
290
     0
  0
SCALE
  5
53
102
{ACAD_REACTORS
330
47
102
}
330
47
100
AcDbScale
 70
     0
300
1:100
140
1.0
141
100.0
290
     0
  0
SCALE
  5
54
102
{ACAD_REACTORS
330
47
102
}
330
47
100
AcDbScale
 70
     0
300
2:1
140
2.0
141
1.0
290
     0
  0
SCALE
  5
55
102
{ACAD_REACTORS
330
47
102
}
330
47
100
AcDbScale
 70
     0
300
4:1
140
4.0
141
1.0
290
     0
  0
SCALE
  5
56
102
{ACAD_REACTORS
330
47
102
}
330
47
100
AcDbScale
 70
     0
300
8:1
140
8.0
141
1.0
290
     0
  0
SCALE
  5
57
102
{ACAD_REACTORS
330
47
102
}
330
47
100
AcDbScale
 70
     0
300
10:1
140
10.0
141
1.0
290
     0
  0
SCALE
  5
58
102
{ACAD_REACTORS
330
47
102
}
330
47
100
AcDbScale
 70
     0
300
100:1
140
100.0
141
1.0
290
     0
  0
SCALE
  5
59
102
{ACAD_REACTORS
330
47
102
}
330
47
100
AcDbScale
 70
     0
300
1/128" = 1'-0"
140
0.0078125
141
12.0
290
     0
  0
SCALE
  5
5A
102
{ACAD_REACTORS
330
47
102
}
330
47
100
AcDbScale
 70
     0
300
1/64" = 1'-0"
140
0.015625
141
12.0
290
     0
  0
SCALE
  5
5B
102
{ACAD_REACTORS
330
47
102
}
330
47
100
AcDbScale
 70
     0
300
1/32" = 1'-0"
140
0.03125
141
12.0
290
     0
  0
SCALE
  5
5C
102
{ACAD_REACTORS
330
47
102
}
330
47
100
AcDbScale
 70
     0
300
1/16" = 1'-0"
140
0.0625
141
12.0
290
     0
  0
SCALE
  5
5D
102
{ACAD_REACTORS
330
47
102
}
330
47
100
AcDbScale
 70
     0
300
3/32" = 1'-0"
140
0.09375
141
12.0
290
     0
  0
SCALE
  5
5E
102
{ACAD_REACTORS
330
47
102
}
330
47
100
AcDbScale
 70
     0
300
1/8" = 1'-0"
140
0.125
141
12.0
290
     0
  0
SCALE
  5
5F
102
{ACAD_REACTORS
330
47
102
}
330
47
100
AcDbScale
 70
     0
300
3/16" = 1'-0"
140
0.1875
141
12.0
290
     0
  0
SCALE
  5
60
102
{ACAD_REACTORS
330
47
102
}
330
47
100
AcDbScale
 70
     0
300
1/4" = 1'-0"
140
0.25
141
12.0
290
     0
  0
SCALE
  5
61
102
{ACAD_REACTORS
330
47
102
}
330
47
100
AcDbScale
 70
     0
300
3/8" = 1'-0"
140
0.375
141
12.0
290
     0
  0
SCALE
  5
62
102
{ACAD_REACTORS
330
47
102
}
330
47
100
AcDbScale
 70
     0
300
1/2" = 1'-0"
140
0.5
141
12.0
290
     0
  0
SCALE
  5
63
102
{ACAD_REACTORS
330
47
102
}
330
47
100
AcDbScale
 70
     0
300
3/4" = 1'-0"
140
0.75
141
12.0
290
     0
  0
SCALE
  5
64
102
{ACAD_REACTORS
330
47
102
}
330
47
100
AcDbScale
 70
     0
300
1" = 1'-0"
140
1.0
141
12.0
290
     0
  0
SCALE
  5
65
102
{ACAD_REACTORS
330
47
102
}
330
47
100
AcDbScale
 70
     0
300
1-1/2" = 1'-0"
140
1.5
141
12.0
290
     0
  0
SCALE
  5
66
102
{ACAD_REACTORS
330
47
102
}
330
47
100
AcDbScale
 70
     0
300
3" = 1'-0"
140
3.0
141
12.0
290
     0
  0
SCALE
  5
67
102
{ACAD_REACTORS
330
47
102
}
330
47
100
AcDbScale
 70
     0
300
6" = 1'-0"
140
6.0
141
12.0
290
     0
  0
SCALE
  5
68
102
{ACAD_REACTORS
330
47
102
}
330
47
100
AcDbScale
 70
     0
300
1'-0" = 1'-0"
140
12.0
141
12.0
290
     0
  0
ENDSEC
  0
EOF
